Oops, an error
Loading. Please wait.

Ghost Of Love Tab

9,589 views 3 this week
1 commentread comment
1 2 3 4 5
excellent!
x 6
add to favorites
launch autoscroll
font size
0
reset
how to read this tab
guitar tuner
Autoscroll
slow
fast
+/-
esc
set tempo
stop
Help us to improve Ultimate-Guitar.com Take our survey!
×
Author
Difficulty
-------------------------------------------------------------------------------
                             GHOST OF LOVE - The Rasmus
-------------------------------------------------------------------------------
Tabbed by: Mono
Email: bowdowntothemono@hotmail.co.uk

Tuning: Standard (EADGBe)

Piano Intro:
e|-9---9---9---10----|
B|---7---7---7----7--|
G|-------------------|
D|-------------------| x2
A|-------------------|
E|-------------------|

Main Riff (Keep the piano intro going):
e|---------------------------------|
B|---------------------------------|
G|---------------------------------|
D|-4---------------4---------------| x2
A|---4---------------4-------------|
E|-----2--2-2-2-2------2--2-2-2-2--|

Verse (Mostly bass, but here's the basic notes):
e|--------------------------------------------------|
B|--------------------------------------------------|
G|--------------------------------------------------|
D|--------------------------------------------------|
A|--------------------------------------------------|
E|-7--5--4--2--7--5--4--2--10--9--7--5--7--5--4--2--|

Pre-chorus (all PM):
e|--------------------------------------------------------|
B|--------------------------------------------------------|
G|-77777777-99999999----------66666666-77777777-99999999--|
D|-77777777-99999999-44444444-66666666-77777777-99999999--|
A|-55555555-77777777-44444444-44444444-55555555-77777777--|
E|-------------------22222222-----------------------------|

Chorus:
e|----------------------------------------------------------------|
B|----------------------------------------------------------------|
G|-------------------------------------------------4--------------|
D|-4---------------7---------------2-----------------4------------| x2
A|---4---------------7---------------2-----------------2--4--7-8--|
E|-----2--2-2-2-2------5--5-5-5-5------0--0-0-0-0-----------------|

Main Riff x1
Verse
Pre-chorus
Chorus

Pre-bridge:
e|-------------------|
B|-------------------|
G|-1111111111111111--|
D|-1111111111111111--|
A|-9-9-9-9-9-9-9-9---|
E|-------------------|

Bridge:
e|-----------------------|
B|-----------------------|
G|------------9999-7777--|
D|--5555-3333-9999-7777--| x3
A|--5555-3333-7777-5555--|
E|--3333-1111------------|

Bridge contd:
e|--------------------10\--|
B|-------------------------|
G|-33333333-55555555-------|
D|-33333333-55555555-------|
A|-11111111-33333333-------|
E|-------------------------|

Interlude (Bass)

Chorus x2
Main Riff


| /  slide up
| \  slide down
| h  hammer-on
| p  pull-off
| ~  vibrato
| +  harmonic
| x  Mute note
===============================================================================
Suggest correction
comments
print report bad tab
1 comment total.
0 reply
Borbi01 339 wrote on January 18 2009, 12:18 pm

Really good tab!! Thank you for this!
I just have 1 correction:

I think that it should be a D5 powerchord (A:5;D:7;G:7)in the Pre-bridge instead of the F#5...

guest
You may want to rate the tab now too:
select rating
Wanna post a correction for this tab? Suggest correction