Oops, an error
Loading. Please wait.

Guilty Tab

version 4
version 4

Whole song

Interactive

903 views 1 this week
no commentswrite comment
1 2 3 4 5
3 more votes to show rating
add to favorites
launch autoscroll
font size
0
reset
how to read this tab
guitar tuner
Autoscroll
slow
fast
+/-
esc
set tempo
stop
Help us to improve Ultimate-Guitar.com Take our survey!
×
Author
Difficulty
intermediate
INTRO
 
  e|-------------------------------------3----|
  B|-----------------3----0----3----5---------|
  G|------------------------------------------|
  D|----3----5----4---------------------------|
  A|------------------------------------------|
  E|------------------------------------------|

Chorus

  e|------------------------------------------|
  B|------------------------------------------|
  G|--3----3----3----3----3----3----3----3----|
  D|--3----3----3----3----3----3----3----3----|
  A|--7----7----7----7----7----7----7----7----|
  E|------------------------------------------|

  e|------------------------------------------|
  B|------------------------------------------|
  G|---5---5---5---5-----7---7---7---7--------|
  D|---5---5---5---5-----7---7---7---7--------|
  A|---3---3---3---3-----5---5---5---5--------|
  E|------------------------------------------|

  e|------------------------------------------|
  B|------------------------------------------|
  G|---4---4---4---4---4---4---4---4----------|
  D|---4---4---4---4---4---4---4---4----------|
  A|---2---2---2---2---2---2---2---2----------|
  E|------------------------------------------|

  e|------------------------------------------|
  B|------------------------------------------|
  G|---5---5---5---5-----7---7---7---7--------|
  D|---5---5---5---5-----7---7---7---7--------|
  A|---3---3---3---3-----5---5---5---5--------|
  E|------------------------------------------|  chorus x2


VERSE
 
Dm 
I feel Guilty 
C             Am  
My words are empty 
Dm 
No signs to give You 
C             Am 
Don`t have a ten for you 
Dm 
You said im Heartless 
C             Am 
Then you See I do care 
Dm 
I use to be there for you 
C           Am F                 Am  F         Am  F   
You said I seem so dead  , I have changed, So have youuuu 

Chorus
  OR

Dm C  
Guilty,  
Am           F  G 
Guilty, I feel so 
Dm C 
Empty you know i made you feel 
Am F G 

verse (same chords)
 
I`ve put a shield upon you 
didn`t mean to hurt you 
Would `ve known the poison do mine 
never meant to makeyou cry 
you`ve been so thoughtless 
I can see right trough you 
You used to be there for me 
Don`t you leave and say goodbye, you have changed so have I  

Chorus

Bridge

Dm                           C       
I`ve never thought that the time and the distance 
     Am                      F 
between us made you so much colder 
Dm                             C 
I carry the world on my shouldeeers  
 

chorus
Suggest correction
Give kudos to tab author, rate the tab!
1 2 3 4 5
comments
print report bad tab
guest
You may want to rate the tab now too:
select rating
Wanna post a correction for this tab? Suggest correction