Oops, an error
Loading. Please wait.
We have an official In The Shadows tab made by UG professional guitarists. Check out the tab »
×
by Rasmus
7,163 views 1 this week
3 commentsread comments
1 2 3 4 5
x 5
add to favorites
×
Save as Personal and add changes to this tab that will be seen only by you. Learn more ›
×
You can save this tab as Personal to edit and correct it or add notes. All changes will be seen only by you. Learn more »
save as personal
new!
launch autoscroll
font size
0
reset
how to read this tab
guitar tuner
backing track
0:00
0:00
Autoscroll
slow
fast
+/-
esc
set tempo
stop
Tabbed by : Vortex ( cem )
icq : 687299
mail : vortex@doruk.net.tr
No comment.. It's clear..

Intro
e-----------------------------------------------------------------------|
b-----------------------------------------------------------------------|
g-----------------------------------------------------------------------|   
d-7-7--7---7---------------------4-6-7---7------------------------------|
a-5-5--5-7-5-7-6-4-4--4-2-2-4--7-2-4-5-7-5-7-6--4-4--6-6-7--------------|
E--------5---5-4-2-2--2-0-0-2--5-------5---5-4--2-2--4-4-5--------------|


Verse

e-----------------------------------------------------------------------|
b-----------------------------------------------------------------------|
g-----------------------------------------------------------------------|   
d-----------------------------------------------------------------------|
a-5-5--5-0-5-0-------------------2--4-5-0-5-----------------4-----------|
E--------------4-2-2--2-0-0-2--5------------5-4--2-4--5-4-5--5----------|

e-----------------------------------------------------------------------|
b-----------------------------------------------------------------------|
g-----------------------------------------------------------------------|   
d-----------------------------------------------------------------------|
a-5-5--5-0-5-0-------------------2--4-5-0-5-----------------------------|
E--------------4-2-2--2-0-0-2--5------------5-4--2-2--2-2-2--2----------|


clean and palmmute x3
e|--------------------------------|
B|--------------------------------|
G|--------------------------------|
D|--------------------------------|
A|55555555--------22222222--------|
E|--------22222222--------22222222|

Sometimes..
e|---------------------|--------------------------------|
B|---------------------|--------------------------------|
G|---------------------|--------------------------------|
D|---------2-----------|--------------------------------|
A|55555555--2-4444444--|--55555555----------------------|
E|---------------------|-----------2222---44444--55555--|

e|---------------------|-------------|
B|---------------------|-------------|
G|---------------------|-------------|
D|---------2-----------|-------------|
A|55555555--2-4444444--|--5555555----|
E|---------------------|-------------|
e|-------|
B|-------|
G|-------|
D|4-3-2--|
A|4-3-2--|
E|2-1-0--|


I`ll be watching..
e|--------------------------------|    |---|
B|--------------------------------|    |---|
G|7---------------4---------------|    |---|
D|7-------4-------4-------4-------|    |-2-|
A|5-------4-------2-------4-------|    |-2-|
E|--------2---------------2-------|    |-0-|
then

Verse2

e-----------------------------------------------------------------------|
b-----------------------------------------------------------------------|
g-----------------------------------------------------------------------|   
d-----------------------------------------------------------------------|
a-5-5--5-0-5-0-------------------2--4-5-0-5-----------------4-----------|
E--------------4-2-2--2-0-0-2--5------------5-4--2-4--5-4-5--5----------|

e-----------------------------------------------------------------------|
b-----------------------------------------------------------------------|
g-----------------------------------------------------------------------|   
d-----------------------------------------------------------------------|
a-5-5--5-0-5-0-------------------2--4-5-0-5-----------------------------|
E--------------4-2-2--2-0-0-2--5------------5-4--2-2--4-4---5-----------|

clean and palmmute x1
e|----------------------------------------------------------|
B|----------------------------------------------------------|
G|----------------------------------------------------------|
D|----------------------------------------------------------|
A|--------5555555-----------5555555--------5555555----------|
E|-222222----------2222222--------22222222---------22222222-|

Sometimes..
e|-------------------|---------------------------------------|   |-------|
B|-------------------|---------------------------------------|   |-------|
G|--9-11--6~~~--6-7--|---------------------------------------|   |-------|
D|-------------------|--4-6--7-------------------------------|   |-4-3-2-|
A|-------------------|---------------------------------------|   |-4-3-2-|
E|-------------------|---------------------------------------|   |-2-1-0-|

I`ll be watching..
e|--------------------------------|    |---|
B|--------------------------------|    |---|
G|7---------------4---------------|    |---|
D|7-------4-------4-------4-------|    |-2-|
A|5-------4-------2-------4-------|    |-2-|
E|--------2---------------2-------|    |-0-|

Bridge:
Take me..In circles , waiting , for something .. feel me, touch me,
come take me higher bla bla..

e|----------------------------------------------------------|2x |--------|
B|----------------------------------------------------------|   |--------|
G|----------------------------------------------------------|   |--------|
d|----------------------------------------------------------|   |-4-3-2--|
A|-55555555555--777777----2222------44444444444444444-------|   |-2-1-0--|
E|----------------------------------------------------------|   |-2-1-0--|

I`ll be watching..
e|--------------------------------|-------------| |---|
B|--------------------------------|-------------| |---|
G|7---------------4---------------|--------6-7--| |-7-|
D|7-------4-------4-------4-------|--4-6-7-6-7--| |-7-|
A|5-------4-------2-------4-------|--4-6-7-4-5--| |-5-|
E|--------2---------------2-------|--2-4-5------| |---|

Solo:
e|-------------------------------------------------------|
B|--5-7--9-10--10-12--12-14--14-15--17-19--19-21--21-22--|
G|-------------------------------------------------------|
D|-------------------------------------------------------|
A|-------------------------------------------------------|
E|-------------------------------------------------------|

outro:
Verse

e-----------------------------------------------------------------------|
b-----------------------------------------------------------------------|
g-----------------------------------------------------------------------|   
d-----------------------------------------------------------------------|
a-5-5--5-0-5-0-------------------2--4-5-0-5-----------------4-----------|
E--------------4-2-2--2-0-0-2--5------------5-4--2-4--5-4-5--5----------|

e-----------------------------------------------------------------------|
b-----------------------------------------------------------------------|
g-----------------------------------------------------------------------|   
d-----------------------------------------------------------------------|
a-5-5--5-0-5-0-------------------2--4-5-0-5-----------------------------|
E--------------4-2-2--2-0-0-2--5------------5-4--2-2--2-0-0--0----------|
Suggest correction
comments
print report bad tab
3 comments total.
0 reply
man utd 10 Sep 27, 2004 08:00 PM

if any one wants the proper tab email me at malteeser51@aol.com

0 reply
Dominic_91 31 May 14, 2006 12:29 AM

This Isnt Right Mf..

0 reply
luisaceo 77 Jul 22, 2006 06:00 AM

THIS TAB SUCKS, SO PLZ STOP TABBING!, HERE IS THE CORRECT ONE:

Intro:(1st guitar)

E |-----------------|---------------------|---------------------|
B |-----------------|---------------------|---------------------|
G |-----------------|---------------------|---------------------|
D |-----------------|--------------------7|---------------------|
A |5-5-5-7-5-4-0----|-----4-------0-2-4-5--|--5-4-0-------------|
E |-----------------|2-2-2---0-2----------|----------2-2-4-4--5-|

(now joins in the second guitar with the Riff)


E |-----------------------------------------------------------------------|
B |-----------------------------------------------------------------------|
G |-----------------------------------------------------------------------|
D |--------------------------------------7--------------------------------|
A |5-5-5-5-5-4-0-----------------0-2-4-5---5-4-0----------0-7-0-4-0-------|
E |-----------------2-2-2-2-0-2---------------------2-4-------------------|


Riff:(2nd guitar)
Main Riff - Distortion (1st guitar)

E|-------------------|-----------------------|-------------------|
B|-------------------|-----------------------|-------------------|
G|-7---7---7-7-7-6---|-----------------------|-4---6---7-7-7-6---|
D|-7---7---7-7-7-6-7-|---4---4---4-4-4-2-4-7-|-4---6---7-7-7-6-7-|
A|-5---5---5-5-5-4-7-|---4---4---4-4-4-2-4-7-|-2---4---5-5-5-4-7-|
E|-----------------5-|---2---2---2-2-2-0-2-5-|-----------------5-|

E|-----------|
B|-----------|
G|-----------|
D|-4-4-6-6-7-|
A|-4-4-6-6-7-|
E|-2-2-4-4-5-|


Chorus:(both guitars)

E|-----------------|-----------------|-----------------|-----------------|
B|-----------------|-----------------|-----------------|-----------------|
G|-7-7-7-7-7-7-7-7-|-----------------|-4-4-4-4-4-4-4-4-|-----------------|
D|-7-7-7-7-7-7-7-7-|-4-4-4-4-4-4-4-4-|-4-4-4-4-4-4-4-4-|-4-4-4-4-4-4-4-4-|
A|-5-5-5-5-5-5-5-5-|-4-4-4-4-4-4-4-4-|-2-2-2-2-2-2-2-2-|-4-4-4-4-4-4-4-4-|
E|-----------------|-2-2-2-2-2-2-2-2-|-----------------|-2-2-2-2-2-2-2-2-|

(do this 2 or 3 times)



verse:"No sleep, no sleep until I'm done with finding the answer.."(BOTH GUITAR FROM NOW ON)



E |-----------|-----------|
B |-----------|-----------|
G |-----------|-----------|
D |-7---(X8)--|-4-(X8)----|(Repeat this till u then have to play the chorus-listen to the song! With very light palm mute)
A |-7---------|-4---------|
E |-5---------|-2---------|


E |-----------|
B |-----------|
G |-----------|
D |-4--3--2---|
A |-4--3--2---|
E |-2--1--0---|
Then play the chorus again

guest
Wanna post a correction for this tab? Suggest correction