Oops, an error
Loading. Please wait.
We have an official In The Shadows tab made by UG professional guitarists. Check out the tab »
×
by Rasmus
20,826 views 21 this week
2 commentsread comments
1 2 3 4 5
x 11
add to favorites
×
Save as Personal and add changes to this tab that will be seen only by you. Learn more ›
×
You can save this tab as Personal to edit and correct it or add notes. All changes will be seen only by you. Learn more »
save as personal
new!
launch autoscroll
font size
0
reset
guitar tuner
backing track
0:00
0:00
Autoscroll
slow
fast
+/-
esc
set tempo
stop
Author
Unregistered
*--------------------------------------*
| Artist:	The Rasmus             |
| Title:	In The Shadows         |
| Tabbed by: 	vi3x [vi3x@libero.it]  |
*--------------------------------------*

Intro
G|------------------------------------------------------------------|
D|-0--0--0-2-0----------------------------7-------------------------|
A|------------4-0----------------0-2--4--5-5-4-0--------------------|
E|----------------2--2--2-1p0--2------------------2-2-4-4-5-5-------|

G|------------------------------------------------------------------|
D|-0--0--0-2-0----------------------------7-------------------------|
A|------------4-0----------------0-2--4--5-5-4-0-----------7-5-4-0--|
E|----------------2--2--2-1p0--2------------------2--4--5-----------|

G|------------------------------------------------------------------|
D|-0--0--0-2-0----------------------------7-------------------------|
A|------------4-0----------------0-2--4--5-5-4-0--------------------|
E|----------------2--2--2-1p0--2------------------2--2--2-0-1-2-----|

Verse 1
G|------------------------------------------------|
D|------------------------------------------------|
A|-2--2--2--2------------2--2--2--2---------------|
E|------------2--2--2--2------------2--2--2--2----|

G|------------------------------------------------|
D|------------------------------------------------|
A|-2--2--2--2------------2--2--2--2---------4-4-4-|
E|------------2--2--2--2------------2--2--2-------|

G|------------------------------------------------|
D|-0--0--0--0-------------------------------------|
A|-----------------------2--2--2--2---------------|
E|------------2--2--2--2------------2--2--2--2----|

G|-----------------------------------|------------|
D|-0--0--0--0------------------------|------------|
A|-----------------------2--2--2--2--|------------|
E|------------2--2--2--2-------------|--2--1--0---|

Chorus
G|---------------------------------|--------------------------------|
D|-0-0-0-0-------------------------|-0-0-0-0-----------------0------|
E|-----------------2-2-2-2---------|-----------------2-2-2-2---4-0--|
A|---------2-2-2-2---------2-2-2-2-|---------2-2-2-2--------------2-|

Intro-Like
G|------------------------------------------------------------------|
D|-0--0--0-2-0----------------------------7-------------------------|
A|------------4-0----------------0-2--4--5-5-4-0----------7-5-4-0---|
E|----------------2--2--2-1p0--2------------------2--4--5-----------|

G|------------------------------------------------------------------|
D|-0--0--0-2-0----------------------------7-------------------------|
A|------------4-0----------------0-2--4--5-5-4-0--------------------|
E|----------------2--2--2-1p0--2------------------2-2-4-4-5/0-------|

Verse 2
G|---------------------2-1-2---------------------2-1-2-|
D|-----------------------------------------------------|
A|-2--2--2--2----------------2--2--2--2----------------|
E|-------------2--2--2-------------------2--2--2-------|

G|---------------------2-1-2---------------------------| 
D|-----------------------------------------------------|
A|-2--2--2--2----------------2--2--2--2----------4-4-4-|
E|-------------2--2--2-------------------2--2--2-------|

G|---------------------2-1-2---------------------2-1-2-|
D|-0--0--0--0------------------------------------------|
A|---------------------------2--2--2--2----------------|
E|-------------2--2--2-------------------2--2--2-------|

G|---------------------2-1-2-------------|-------------|
D|-0--0--0--0----------------------------|-------------|
A|---------------------------2--2--2--2--|-------------|
E|-------------2--2--2-------------------|--2--1--0----|

Chorus [Same as Chorus 1]

Bridge
G|------1h2p1-------------------------1h2p1-|
D|----------------4h6p4-----4h6p4-----------|
A|-2-2-2-----2-2-2--------------------------|
E|---------------------2-2-2-----2-2-2------|

G|------1h2p1-------------------------------|
D|----------------4h6p4-----4h6p4-----------|
A|-2-2-2-----2-2-2--------------------------|
E|---------------------2-2-2-------2--1--0--|

Chorus 2
G|---------------------------------|---------------------------------|
D|-0-0-0-0-------------------------|-0-0-0-0-------------------------|
E|-----------------2-2-2-2---------|-----------------2-2-2-2-----0-2-|
A|---------2-2-2-2---------2-2-2-2-|---------2-2-2-2---------2-4-----|

G|---------------------------------|---------------------------------|
D|-0-0-0-0-------------------------|-0-0-0-0-------------------------|
E|-----------------2-2-2-2---------|-----------------2-2-2-2---------|
A|---------2-2-2-2---------2-2-2-2-|---------2-2-2-2---------2~------|

Coda
G|------------------------------------------------------------------|
D|-0--0--0-2-0----------------------------7-------------------------|
A|------------4-0----------------0-2--4--5-5-4-0-----------7-5-4-0--|
E|----------------2--2--2-1p0--2------------------2--4--5-----------|

G|------------------------------------------------------------------|
D|-0--0--0-2-0----------------------------7-------------------------|
A|------------4-0----------------0-2--4--5-5-4-0--------------------|
E|----------------2--2--2-1p0--2------------------2--2--2-0-1-2-----|
Suggest correction
comments
print report bad tab
2 comments total.
+3 reply
Raido 12 Jan 23, 2009 10:35 AM

Intro
G|--------------------------------------------------------------------|
D|-0--0--0-2-0--------------------------------------------------------|
A|------------4-0----------------0-2--4--5-7-5-4-0--------------------|
E|----------------2--2--2-1p0--2------------------2-2-4-4-5-5---------|

+1 reply
Bobert5 212 Jan 10, 2010 11:58 AM

Are there 2 versions of this song? what ive got on the computer is much shorter than this
secondly, its interesting that the A and E strings swich places in the Chori =)
Well, the parts of the song which you tabed that acually exist are pretty much perfect.
4 stars

guest
Wanna post a correction for this tab? Suggest correction