Oops, an error
Loading. Please wait.

In The Shadows Tab

version 4
version 4

Interactive

Video

3,797 views 1 this week
1 commentread comment
1 2 3 4 5
x 4
add to favorites
launch autoscroll
font size
0
reset
how to read this tab
guitar tuner
backing track
0:00
0:00
×
Best way to learn
"In The Shadows"
Autoscroll
slow
fast
+/-
esc
set tempo
stop
Author
Tuned in E-A-D-G-B-E


Intro 1

E  |-----------------------------------------------------------------------|
B  |-----------------------------------------------------------------------|
G  |-----------------------------------------------------------------------|
D  |-------------------------------------7---------------------------------|
A  |5-5-5-7-5-4-0--------4-------0-2-4-5----5-4-0---------0----------------|
E  |---------------2-2-2---0-2--------------------2-2-4-4------------------|

Intro 2

E  |-----------------------------------------------------------------------|
B  |----------------------------------------------play this twice----------|
G  |-----------------------------------------------------------------------|
D  |--------------------------------------7--------------------------------|
A  |5-5-5-5-5-4-0-----------------0-2-4-5---5-4-0----------0-7-0-4-0-------|
E  |-----------------2-2-2-2-0-2---------------------2-4-------------------|

Chorus 1

E  |---------------------------------------------------------------|play 
B  |---------------------------------------------------------------|this a
G  |---------------------------------------------------------------|couple
D  |---------------------------------------------------------------|of times
A  |5-5-5-5-5-5-5-5-5-5-5-5-5-5-5-5-4-4-4-4-4-4-4-4-4-4-4-4-4-4-4-4|listen 
E  |---------------------------------------------------------------|to the 
                                                                    song
E  |-------------------|
B  |-------------------| then play this
G  |-------------------|
D  |4-3-2--------------|  
A  |4-3-2--------------|
E  |2-1----------------|

Chorus 2

E  |--------------------------------------|
B  |--------------------------------------|
G  |7-7-----------------4-4---------------|play this part twice
D  |7-7-8x---4-4--------4-4-8x----4-4-----|
A  |5-5------4-4-8x-----2-2-------4-4-8x--|
E  |--------2-2------------------2-2------|

E  |-----------|
B  |-----------|
G  |-----------|then play this
D  |4-4-6-6-7--|   
A  |4-4-6-6-7--|
E  |2-2-4-4-5--|

Order of playing the song:

Intro 1			
Intro2			
Chorus 1			
Chorus 2			
Intro 2			
Chorus 1		
Chorus 2
Chorus 1
Chorus 2
En then there is a part that i haven't figured out yet but you can play
the second chorus there if you want.
	
when you play the second chorus for the second time you must end like this:

E  --------------------
B  --------------------
G  --------------------
D  --------------------   
A  ----------0---------
E  2-2-4-4-------------
Suggest correction
comments
print report bad tab
1 comment total.
0 reply
luisaceo 77 Jul 22, 2006 04:37 AM

the intro its 100% correct, though the rest sucks, look at the correct version:
Intro:(1st guitar)

E |-----------------|---------------------|---------------------|
B |-----------------|---------------------|---------------------|
G |-----------------|---------------------|---------------------|
D |-----------------|--------------------7|---------------------|
A |5-5-5-7-5-4-0----|-----4-------0-2-4-5--|--5-4-0-------------|
E |-----------------|2-2-2---0-2----------|----------2-2-4-4--5-|

(now joins in the second guitar with the Riff)


E |-----------------------------------------------------------------------|
B |-----------------------------------------------------------------------|
G |-----------------------------------------------------------------------|
D |--------------------------------------7--------------------------------|
A |5-5-5-5-5-4-0-----------------0-2-4-5---5-4-0----------0-7-0-4-0-------|
E |-----------------2-2-2-2-0-2---------------------2-4-------------------|


Riff:(2nd guitar)
Main Riff - Distortion (1st guitar)

E|-------------------|-----------------------|-------------------|
B|-------------------|-----------------------|-------------------|
G|-7---7---7-7-7-6---|-----------------------|-4---6---7-7-7-6---|
D|-7---7---7-7-7-6-7-|---4---4---4-4-4-2-4-7-|-4---6---7-7-7-6-7-|
A|-5---5---5-5-5-4-7-|---4---4---4-4-4-2-4-7-|-2---4---5-5-5-4-7-|
E|-----------------5-|---2---2---2-2-2-0-2-5-|-----------------5-|

E|-----------|
B|-----------|
G|-----------|
D|-4-4-6-6-7-|
A|-4-4-6-6-7-|
E|-2-2-4-4-5-|


Chorus:(both guitars)

E|-----------------|-----------------|-----------------|-----------------|
B|-----------------|-----------------|-----------------|-----------------|
G|-7-7-7-7-7-7-7-7-|-----------------|-4-4-4-4-4-4-4-4-|-----------------|
D|-7-7-7-7-7-7-7-7-|-4-4-4-4-4-4-4-4-|-4-4-4-4-4-4-4-4-|-4-4-4-4-4-4-4-4-|
A|-5-5-5-5-5-5-5-5-|-4-4-4-4-4-4-4-4-|-2-2-2-2-2-2-2-2-|-4-4-4-4-4-4-4-4-|
E|-----------------|-2-2-2-2-2-2-2-2-|-----------------|-2-2-2-2-2-2-2-2-|

(do this 2 or 3 times)



verse:"No sleep, no sleep until I'm done with finding the answer.."(BOTH GUITAR FROM NOW ON)



E |-----------|-----------|
B |-----------|-----------|
G |-----------|-----------|
D |-7---(X8)--|-4-(X8)----|(Repeat this till u then have to play the chorus-listen to the song! With very light palm mute)
A |-7---------|-4---------|
E |-5---------|-2---------|


E |-----------|
B |-----------|
G |-----------|
D |-4--3--2---|
A |-4--3--2---|
E |-2--1--0---|
Then play the chorus again

guest
You may want to rate the tab now too:
select rating
Wanna post a correction for this tab? Suggest correction