Oops, an error
Loading. Please wait.

Living In A World Without You tab

version 1
version 1

Whole song

Interactive

by Rasmus
23,443 views 12 this week
12 commentsread comments
1 2 3 4 5
x 3
add to favorites
×
Save as Personal and add changes to this tab that will be seen only by you. Learn more ›
×
You can save this tab as Personal to edit and correct it or add notes. All changes will be seen only by you. Learn more »
launch autoscroll
font size
0
reset
how to read this tab
guitar tuner
edit
Autoscroll
slow
fast
+/-
esc
set tempo
stop
Author
Band: The Rasmus
Song: Living In A World Without You
Album: Black Roses
Tab by: bEbE!

Hey!! did u miss me? haha I'm back with The rasmus tabs.. this song I tabbed
from here http://www.youtube.com/watch?v=z80FZOt_evg&feature=related

There are mistakes, specially at the chorus, so plz be patient,
I will try to correct it, plz be patient.. I'm working on TEN BLACK ROSES too.. And I'll 
to tab all the album...

here we go...


Uptd 23 august!!!

Intro (live version):
E|-------------|   |-----------|
B|-------------|   |-----------|
G|-------------|   |-----------|
D|-9999999-999-|x5 |-77777-777-|
A|-7777777-777-|   |-55555-555-|
E|-0000000-000-|   |-----------|
   ........ ..       ..... ...

Piano intro:
E|-------------------------------------------| 
B|--8-7----8-7--5---5----5---------------7---| 
G|----------------7---7-----7-5-4-5--4-------| 
D|--------------------------------------7----| 
A|-------------------------------------------| 
E|-------------------------------------------|

Verse:
It's hard to believe that it came to this,..
E|------------------------------------------------------------------|
B|------------------------------------------------------------------|
G|------------------------------------------------------------------|
D|-99999999999-999-999999999999-999-999999999999-999-9999999999-999-|
A|-77777777777-777-777777777777-777-777777777777-777-7777777777-777-|
E|-00000000000-000-000000000000-000-000000000000-000-0000000000-000-|
   ........ .. ... ............ ... ............ ... .......... ...


Then something inside me called freedom came alive,..
E|-----------------------|
B|-----------------------|
G|-----------------------|
D|-77777777-77-777777-77-|
A|-77777777-77-555555-55-|
E|-55555555-55-----------|
   ........ .. ...... ..

Prechorus:
Suddenly someone was there in the window,
Looking outside at the sky that had never been blue,
E|------------|
B|------------|
G|----------4-|
D|-2--------4-|
A|-2--------2-|
E|-0----------|


Chorus: 
Oh oh oh oh there's a world without you..
E|-------------------------------|
B|-------------------------------|
G|-------------------------------|
D|-------------------------------|
A|------7--3-----5-(5)--3--2--0--|X4
E|-(0)--------5------------------|


Verse 2
Prechorus
Chorus
Verse 3
Chorus

Mini solo:
E|-------------------------|------------------------(19)(19)(19)(19)(19)(19)(19)(19)-|
B|-12----12----12----------|-12----12----12------------------------------------------|
G|-14b16-14b16-14b16(14)\\-|-14b16-14b16-14b16(14)-----------------------------------|
D|-------------------------|---------------------------------------------------------|
A|-------------------------|---------------------------------------------------------|
E|-------------------------|---------------------------------------------------------|


End!
Easy
Plz reate
PEACE!!

Here are the lyrics:

It's hard to believe that it came to this,
You paralysed my body with a poison kiss,
For 40 days and nights I was chained to your bed,
You thought that was the end of the story,
Then something inside me called freedom came alive,
Living in a world without you,

You told me, my darling, without me, you're nothing,
You taught me, to look in your eyes, and fed me, your sweet lies,

Suddenly someone was there in the window,
Looking outside at the sky that had never been blue,
Oh oh oh oh there's a world without you,
I see the light,
Living in a world without you,
Oh oh oh oh there is hope to guide me,
I will survive,
Living in a world without you,

It's hard to believe that it came to this,
You paralysed my body with a poison kiss,
For 40 days and nights I was chained to your bed,
You thought that was the end of the story,
Then something inside me called freedom came alive,
Living in a world without you,

You put me together, then trashed me, for pleasure,
You used me, again and again, abused me, confused me,

Suddenly making a run through your garden,
Right through the gates of the past that I'm finally free,
Oh oh oh oh there's a world without you,
I see the light,
Living in a world without you,
Oh oh oh oh there is hope to guide me,
I will survive,
Living in a world without you,

It's hard to believe that it came to this,
You paralysed my body with a poison kiss,
For 40 days and nights I was chained to your bed,
You thought that was the end of the story,
Then something inside me called freedom came alive,
Living in a world without you,

x2

Oh oh oh oh there's a world without you,
I see the light, living in a world without you,
Oh oh oh oh there is hope to guide me,
I will survive, living in a world without you,

Living in world without you x4

            
            
Suggest correction
Creating personal tab
Creating personal tab
You can edit any tab online and save it as your Personal.

You can edit, replace or remove any tab part or add personal notes – all changes will be seen only by you.

Personal tabs can be accessed anytime from any device, even offline.
Learn more »
Give kudos to tab author, rate the tab!
1 2 3 4 5
comments
print report bad tab
12 comments total. Showing first comments.
0 reply
therasmusluis 10 Jul 15, 2008 01:45 PM

Oh,thanks,I miss you
You have a greats tabs
thanks for that
My name is Luis Armando,Im mexican and i love your tabs

0 reply
Xabi 36 Jul 16, 2008 10:45 AM

I think that he doesn't play any chord in the first tab, only mutes the strings

0 reply
beberasmus 869 Jul 16, 2008 11:39 AM

Youre wrong... its not palm mute
u can hear the notes at the verse and how he change it
even at lauri's voice u can hear the notes...

guest
You may want to rate the tab now too:
select rating
Wanna post a correction for this tab? Suggest correction