Oops, an error
Loading. Please wait.

Paradise tab

version 2
version 2

Whole song

  • This is probably the first version of this song on... Show more

Interactive

by Rasmus
1,159 views 30 this week
10 commentsread comments
1 2 3 4 5
x 5
add to favorites
×
Save as Personal and add changes to this tab that will be seen only by you. Learn more ›
×
You can save this tab as Personal to edit and correct it or add notes. All changes will be seen only by you. Learn more »
launch autoscroll
font size
0
reset
how to read this tab
guitar tuner
edit
Autoscroll
slow
fast
+/-
esc
set tempo
stop
About this tab version
This is probably the first version of this song on this site. If someone knows to tab the pre-chorus better than me, please feel free to do so because I'm not very sure about that part. Other parts of the song sound correct to me. Was this info helpful? Yes No
Tune down only low E string to C#. Keep other strings standard.



[Intro]
e |---------------------------------------------------------------------------|
B |---------------------------------------------------------------------------|
G |---------------------------------------------------------------------------|
D |---------------------------------------------------------------------------|
A |---------------------------------------------------------------------------|
C#|0-0-0-0-0-0-0-0-0-0-0-0-0-0-2-2-4-4-4-4-4-4-4-4-4-4-4-4-4-4-2-2------------|

e |---------------------------------------------------------------------------|
B |---------------------------------------------------------------------------|
G |---------------------------------------------------------------------------|
D |---------------------------------------------------------------------------|
A |---------------------------------------------------------------------------|
C#|0-0-0-0-0-0-0-0-0-0-0-0-0-0-2-2-4-4-4-4-4-4-4-4-4-4-4-4-4-4-2-2------------|

[Verse] (0:22)
e |---------------------------------------------------------------------------|
B |---------------------------------------------------------------------------|
G |---------------------------------------------------------------------------|
D |---------------------------------------------------------------------------|
A |---------------------------------------------------------------------------|
C#|0-0-0-0-0-0-0-0-0-0-0-0-0-0-2-2-4-4-4-4-4-4-4-4-4-4-4-4-4-4-2-2------------|

e |---------------------------------------------------------------------------|
B |---------------------------------------------------------------------------|
G |---------------------------------------------------------------------------|
D |---------------------------------------------------------------------------|
A |---------------------------------------------------------------------------|
C#|0-0-0-0-0-0-0-0-0-0-0-0-0-0-2-2-4-4-4-4-4-4-4-4-4-4-4-4-4-4-2-2------------|

[Pre-Chorus] (0:42)
e |---------------------------------------------------------------------------|
B |---------------------------------------------------------------------------|
G |----5----------9---------10-------6-------5----------9---------10-------6--|
D |--6---6-----10---10---10---10---6---6---6---6-----10---10---10---10---6---6|
A |3---------7---------8---------4-------3---------7---------8---------4------|
C#|---------------------------------------------------------------------------|

e |---------------------------------------------------------------------------|
B |---------------------------------------------------------------------------|
G |----5----------9---------10-------6-------5----------9---------10-------6--|
D |--6---6-----10---10---10---10---6---6---6---6-----10---10---10---10---6---6|
A |3---------7---------8---------4-------3---------7---------8---------4------|
C#|---------------------------------------------------------------------------|

[Chorus] (1:03)
e |---------------------------------------------------------------------------|
B |---------------------------------------------------------------------------|
G |---------------------------------------------------------------------------|
D |---------------------------------------------------------------------------|
A |---------------------------------------------------------------------------|
C#|0-0-0-0-0-0-0-0-0-0-0-0-0-0-2-2-4-4-4-4-4-4-4-4-4-4-4-4-4-4-2-2------------|

e |---------------------------------------------------------------------------|
B |---------------------------------------------------------------------------|
G |---------------------------------------------------------------------------|
D |---------------------------------------------------------------------------|
A |---------------------------------------------------------------------------|
C#|0-0-0-0-0-0-0-0-0-0-0-0-0-0-2-2-4-4-4-4-4-4-4-4-4-4-4-4-4-4-2-2------------|

[Verse] (Guitar steps in at 1:44)
e |---------------------------------------------------------------------------|
B |---------------------------------------------------------------------------|
G |---------------------------------------------------------------------------|
D |---------------------------------------------------------------------------|
A |---------------------------------------------------------------------------|
C#|0-0-0-0-0-0-0-0-0-0-0-0-0-0-2-2-4-4-4-4-4-4-4-4-4-4-4-4-4-4-2-2------------|

e |---------------------------------------------------------------------------|
B |---------------------------------------------------------------------------|
G |---------------------------------------------------------------------------|
D |---------------------------------------------------------------------------|
A |---------------------------------------------------------------------------|
C#|0-0-0-0-0-0-0-0-0-0-0-0-0-0-2-2-4-4-4-4-4-4-4-4-4-4-4-4-4-4-2-2------------|

[Pre-Chorus] (2:04)
e |---------------------------------------------------------------------------|
B |---------------------------------------------------------------------------|
G |----5----------9---------10-------6-------5----------9---------10-------6--|
D |--6---6-----10---10---10---10---6---6---6---6-----10---10---10---10---6---6|
A |3---------7---------8---------4-------3---------7---------8---------4------|
C#|---------------------------------------------------------------------------|

e |---------------------------------------------------------------------------|
B |---------------------------------------------------------------------------|
G |----5----------9---------10-------6-------5----------9---------10-------6--|
D |--6---6-----10---10---10---10---6---6---6---6-----10---10---10---10---6---6|
A |3---------7---------8---------4-------3---------7---------8---------4------|
C#|---------------------------------------------------------------------------|

[Chorus] (2:25)
e |---------------------------------------------------------------------------|
B |---------------------------------------------------------------------------|
G |---------------------------------------------------------------------------|
D |---------------------------------------------------------------------------|
A |---------------------------------------------------------------------------|
C#|0-0-0-0-0-0-0-0-0-0-0-0-0-0-2-2-4-4-4-4-4-4-4-4-4-4-4-4-4-4-2-2------------|

e |---------------------------------------------------------------------------|
B |---------------------------------------------------------------------------|
G |---------------------------------------------------------------------------|
D |---------------------------------------------------------------------------|
A |---------------------------------------------------------------------------|
C#|0-0-0-0-0-0-0-0-0-0-0-0-0-0-2-2-4-4-4-4-4-4-4-4-4-4-4-4-4-4-2-2------------|

e |---------------------------------------------------------------------------|
B |---------------------------------------------------------------------------|
G |---------------------------------------------------------------------------|
D |---------------------------------------------------------------------------|
A |---------------------------------------------------------------------------|
C#|0-0-0-0-0-0-0-0-0-0-0-0-0-0-2-2-4-4-4-4-4-4-4-4-4-4-4-4-4-4-2-2------------|

e |---------------------------------------------------------------------------|
B |---------------------------------------------------------------------------|
G |---------------------------------------------------------------------------|
D |---------------------------------------------------------------------------|
A |---------------------------------------------------------------------------|
C#|0-0-0-0-0-0-0-0-0-0-0-0-0-0-2-2-4-4-4-4-4-4-4-4-4-4-4-4-4-4-2-2------------|

e |---------------------------------------------------------------------------|
B |---------------------------------------------------------------------------|
G |---------------------------------------------------------------------------|
D |---------------------------------------------------------------------------|
A |---------------------------------------------------------------------------|
C#|0-0-0-0-0-0-0-0-0-0-0-0-0-0-2-2-4-4-4-4-4-4-4-4-4-4-4-4-4-4-2-2------------|

e |---------------------------------------------------------------------------|
B |---------------------------------------------------------------------------|
G |---------------------------------------------------------------------------|
D |---------------------------------------------------------------------------|
A |---------------------------------------------------------------------------|
C#|0-0-0-0-0-0-0-0-0-0-0-0-0-0-2-2-4-4-4-4-4-4-4-4-4-4-4-4-4-4-4-4------------|
Suggest correction
Creating personal tab
Creating personal tab
You can edit any tab online and save it as your Personal.

You can edit, replace or remove any tab part or add personal notes – all changes will be seen only by you.

Personal tabs can be accessed anytime from any device, even offline.
Learn more »
comments
print report bad tab
10 comments total. Showing first comments.
0 reply
hemuli123 10 Apr 21, 2017 05:27 AM

didn't like this contribution

0 reply
somekov 10 Apr 21, 2017 05:28 AM

didn't like this contribution

0 reply
somekov 10 Apr 27, 2017 04:18 AM

didn't like this contribution

guest
You may want to rate the tab now too:
select rating
Wanna post a correction for this tab? Suggest correction