Oops, an error
Loading. Please wait.

Time To Burn bass

by Rasmus
716 views 3 this week
no commentswrite comment
1 2 3 4 5
1 last vote to show rating
add to favorites
×
Save as Personal and add changes to this tab that will be seen only by you. Learn more ›
×
You can save this tab as Personal to edit and correct it or add notes. All changes will be seen only by you. Learn more »
launch autoscroll
font size
0
reset
guitar tuner
edit
Autoscroll
slow
fast
+/-
esc
set tempo
stop
Author
Difficulty
Song Title: Time To Burn
Artist: The Rasmus
Album: Dead Letters
Tabbed by: Slappytime


So this is my bass tabbed version of Time to Burn, i remade it, my bass teacher said it 
was different but after i heard it over and over again it had to be this way.. i hope 
you like it

NOTICE: the chorus begins with 7 on e-string, but sometimes it's easier to play 2 on a-string



Intro (0:25)
G|----------------------------------------|
D|----------------------------------------|
A|-------------------------------6--64----|
E|-4--43210--4--43210--4--43210-------764-|


Verse
G|----------------------------------------------|
D|---------------------------------4------------|
A|-64-------------------6---4--4321----6--64----| 2X
E|---764-43210---7--6543--------------------764-|


Pre-chorus
G|-----------------------------------------------|
D|-----------------------------------------------|
A|-64--------------------------------6--64-------|
E|---764--43210--4--43210--4--43210-------764--6-|


Chorus						        1st time       2nd time
G|-------------------------------------------------|------------------|---------|
D|-------------------------------------------------|-------------42---|---------|
A|-----------------5-5-5-5-----1-1-----------------|-----1-1-2-2---54-|---------| 2X
E|-7-7-7-7-3-3-3-3---------2-2-----3-3-3-3-0-0-0-0-|-2-2--------------|-2-2-2-2-|


Same as intro
G|-------------------------------------------|
D|-------------------------------------------|
A|----------------------------------6--64----|
E|-4--43210~--4--43210~--4--43210~-------764-|


Verse
G|----------------------------------------------|---|
D|---------------------------------4------------|---|
A|-64-------------------6---4--4321----6--64----|---|
E|---764-43210---7--6543--------------------764-|-6-|


Chorus						        1st time       2nd time
G|-------------------------------------------------|------------------|-----------------|
D|-------------------------------------------------|-------------42---|-----------------|
A|-----------------5-5-5-5-----1-1-----------------|-----1-1-2-2---54-|-----------------| 2X
E|-7-7-7-7-3-3-3-3---------2-2-----3-3-3-3-0-0-0-0-|-2-2--------------|-2-2-2-2-2-2-2-2-|


Bridge
G|-------------------------------------------------------------------|
D|-------------------------------------------------------------------|
A|-------5-----------------------------------------------------------|
E|-3-3-------5-5---7-5-3-3---0-0-0-0-2-2-2-2-2-2-2-2---2---2---2---2-|


Chorus						        1st time       2nd time
G|-------------------------------------------------|------------------|-----------------|
D|-------------------------------------------------|-------------42---|-----------------|
A|-----------------5-5-5-5-----1-1-----------------|-----1-1-2-2---54-|---------2-2-4-4-| 2X
E|-7-7-7-7-3-3-3-3---------2-2-----3-3-3-3-0-0-0-0-|-2-2--------------|-2-2-2-2---------|


Chorus (only 3 frets higher)				1st time	2nd time
G|-------------------------------------------------|------------------|------------
D|-------------------------------------------------|-------------75---|------------
A|-5-5-5-5---------8-8-8-8-----4-4-----------------|-----4-4-5-5---87-|------------
E|---------6-6-6-6---------5-5-----6-6-6-6-3-3-3-3-|-5-5--------------|-5-5-5-5-5-5

---------------------|
---------------------|
---------------------|
-5-5---5---5---5---5-|
2X


Outro
G|--------------------------------------------------------------|
D|--------------------------------------------------------------|
A|-------------------------------9--97--------------------------|
E|-7--76543--7--76543--7--76543-------(10)98~----------7~-------|

Please comment and rate :)

            
            
Suggest correction
Creating personal tab
Creating personal tab
You can edit any tab online and save it as your Personal.

You can edit, replace or remove any tab part or add personal notes – all changes will be seen only by you.

Personal tabs can be accessed anytime from any device, even offline.
Learn more »
Give kudos to tab author, rate the tab!
1 2 3 4 5
comments
print report bad tab
guest
You may want to rate the tab now too:
select rating
Wanna post a correction for this tab? Suggest correction