Oops, an error
Loading. Please wait.

Hand Me Down Hate tab

118 views 1 this week
no commentswrite comment
1 2 3 4 5
3 more votes to show rating
add to favorites
×
Save as Personal and add changes to this tab that will be seen only by you. Learn more ›
×
You can save this tab as Personal to edit and correct it or add notes. All changes will be seen only by you. Learn more »
launch autoscroll
font size
0
reset
how to read this tab
guitar tuner
edit
Autoscroll
slow
fast
+/-
esc
set tempo
stop
Author
Unregistered
[Intro/Verse]
     Am                                 Em        G
------0---0--0--0--0---0------x-x--------0--"-----3--|
------1---1--1--1--1---1------x-x--------0--"-----0--|
------0-h-2--2--2--0-h-2------x-x--------0--"-----0--|
------0-h-2--2--2--0-h-2------x-x--------2--"-----0--|
------0---0--0--0--0---0------x-x--------2--"-----2--|
------x---x--x--x--x---x------x-x--0-0---0--"-----3--|

[Chorus]  G   F#  Am  D     D
           --3---3---0---3-p-2-3-p-2--------|
           --3---3---1---3-----3------------|
    --0---2---2---2-----2-------------------|
    --0---0---2---0-----0-------------------|
    --2---0---0---x-----x-------------------|
    --3---2---x---x-----x-------------------|


I opened up the paper
Read a story of hate and lies
Another cross has been burned
Another family terrorized
I turn on the television
All the images that I see
Prophecy a future
of hate and misery

[Chorus]
How can you give your children
Your hand me down hate?
How can you stain their hearts and minds?
How could you ever think that God
Would honor your hate?
Your hate in the name of Jesus Christ

[Verse 2]
The titles of your churches
Use my Lord's name in vain
the message that you're preaching
Prostitutes His holy name
The teachings that you're teaching
Man, they sound to me insane
The lies I hear you speaking
Are both poison and profane

[Chorus]

[Bridge] (no words)

[Verse 3] (chords get put on distortion and rhythm picks up quickly)
How can yo like the feeling
Of hatred in your blood?
What is it you're concealing
underneath that big white hood?
Whether it's religion
Or the color of your skin
No matter what the reason
your hatred is a sin

Because I am not deceived
By the prayers I hear you pray
I can't help you believe
You'll not escape the Judgment Day

(rhythm slows down w/ bridge chords and mumbling)

I don't understand! (sudden ending)

            
            
Suggest correction
Creating personal tab
Creating personal tab
You can edit any tab online and save it as your Personal.

You can edit, replace or remove any tab part or add personal notes – all changes will be seen only by you.

Personal tabs can be accessed anytime from any device, even offline.
Learn more »
Give kudos to tab author, rate the tab!
1 2 3 4 5
comments
print report bad tab
guest
Wanna post a correction for this tab? Suggest correction