Oops, an error
Loading. Please wait.

Left 4 Dead Bass Tab

73 views 12 this week
no commentswrite comment
1 2 3 4 5
3 more votes to show rating
add to favorites
launch autoscroll
font size
0
reset
guitar tuner
Autoscroll
slow
fast
+/-
esc
set tempo
stop
Help us to improve Ultimate-Guitar.com Take our survey!
×
Author
“Your debt just doubled…”
G|---------------------------------------------------------------|
D|---------------------------------------------------------------|
A|---------/5555-44---------/5555-44---------/5555-44---------/5-|
E|-2-2-2-2----------2-2-2-2----------2-2-2-2----------2-2-2-2----|
  
  “Now he’s called up from the couch”
G|---------------------------------------------------------------|
D|---------------------------------------------------------------|
A|---------/5555-44---------/5555-44---------/5555-44---------/5-|
E|-2-2-2-2----------2-2-2-2----------2-2-2-2----------2-2-2-2----|

“But hold on, I’ve got the right amount of money”

*You don’t play in this bit* 

“But hold on, I’ve got the right amount of money” 2nd time

G|---------------------------------------------------------------|
D|---------------------------------------------------------------|
A|---------/7777-8888---------/7777-------------/7777-8888-------|
E|22222222-----------22222222-----7777-22222222------------------|

G|---------------------------------------------------------------|
D|---------------------------------------------------------------|
A|---------/77---/12---------------------------------------------|
E|22222222-----2-------------------------------------------------|
 
  “How did I get away with that?”
G|---------------------------------------------------------------|
D|---------------------------------------------------------------|
A|---------/5555-44---------/5555-44---------/5555-44---------/5-|
E|-2-2-2-2----------2-2-2-2----------2-2-2-2----------2-2-2-2----|

G|---------------------------------------------------------------|
D|---------------------------------------------------------------|
A|---------/5555-44---------/5555-44---------/5555-44------------|
E|-2-2-2-2----------2-2-2-2----------2-2-2-2----------\2---------|

*Get in the back of the van*

“Didn’t take too long”
G|---------------------------------------------------------------|
D|---------------------------------------------------------------|
A|---------/7777-8888---------/7777-------------/7777-8888-------|
E|22222222-----------22222222-----7777-22222222------------------|

G|---------------------------------------------------------------|
D|---------------------------------------------------------------|
A|---------/77-8-8-8-8-------------------------------------------|
E|22222222-------------------------------------------------------|

G|---------------------------------------------------------------|
D|---------------------------------------------------------------|
A|---------/7777-8888---------/7777-------------/7777-8888-------|
E|22222222-----------22222222-----7777-22222222------------------|


(the rest is below)
G|---------------------------------------------------------------|
D|---------------------------------------------------------------|
A|---------/7----------------------------------------------------|
E|22222222---7--5--2---------------------------------------------|

[Breakdown]
“Left him 4 dead” “That’s what the papers said”
G|---------------------------------------------------------------|
D|---------------------------------------------------------------|
A|---------------------------------------------------------------|
E|2---------------------------------2----------------------------|

“In a hospital bed” “Through a tube he is fed
G|---------------------------------------------------------------|
D|---------------------------------------------------------------|
A|---------------------------------------------------------------|
E|------2------------------------2-------------------------------|  
                                                                 
“Left him 4 dead” “That’s what the papers said”
G|---------------------------------------------------------------|
D|---------------------------------------------------------------|
A|---------------------------------------------------------------|
E|2---------------------------------2----------------------------|

“In a hospital bed” “Through a tube he is fed
G|---------------------------------------------------------------|
D|---------------------------------------------------------------|
A|---------------------------------------------------------------|
E|------2------------------------2-------------------------------|  

*Everyone comes back in*

G|---------------------------------------------------------------|
D|---------------------------------------------------------------|
A|---------/7777-8888---------/7777-------------/7777-8888-------|
E|22222222-----------22222222-----7777-22222222------------------|

G|---------------------------------------------------------------|
D|---------------------------------------------------------------|
A|---------/77-8-8-8-8-------------------------------------------|
E|22222222-------------------------------------------------------|

G|---------------------------------------------------------------|
D|---------------------------------------------------------------|
A|---------/7777-8888---------/7777-------------/7777-8888-------|
E|22222222-----------22222222-----7777-22222222------------------|

G|---------------------------------------------------------------|
D|---------------------------------------------------------------|
A|---------/7----------------------------------------------------|
E|22222222----7-55-\2--------------------------------------------|

 
************************************

| /  Slide up
| \  Slide down

************************************
Suggest correction
Give kudos to tab author, rate the tab!
1 2 3 4 5
comments
print report bad tab
guest
You may want to rate the tab now too:
select rating
Wanna post a correction for this tab? Suggest correction