Oops, an error
Loading. Please wait.

Move Tab

385 views 12 this week
2 commentsread comments
1 2 3 4 5
3 more votes to show rating
add to favorites
launch autoscroll
font size
0
reset
how to read this tab
guitar tuner
×
Best way to learn
"Move"
Autoscroll
slow
fast
+/-
esc
set tempo
stop
Author
Difficulty
  follow
novice
Tab for MOVE by Rat Boy.
  [RIFF]

e|-----------------------------------|---------------------------------------|
B|-----------------------------------|---------------------------------------|
G|--------------7--------2-----------|----------------7--------2-------------|
D|------7------------------------2---|-------7--------------------------2----| x2
A|----------5-5--------------3-3-----|------------5-5---------------3-3------|
E|--5-5--------------3-3-------------|---5-5---------------3-3---------------|               

 [VERSE]

e|--------------------------------|
B|--------------------------------|
G|----------7--7--7---------------|
D|--7--7----7--7--7----7--7--7----| x1
A|--7--7----5--5--5----7--7--7----|
E|--5--5---------------5--5--5----|
 
e|------------------------------------------------|
B|------------------------------------------------|
G|----------7--7--7---------------5--5--4---------|
D|--7--7----7--7--7----5--5--5----5--5--4--(7)----| x4
A|--7--7----5--5--5----5--5--5----3--3--2--(7)----|
E|--5--5---------------3--3--3-------------(5)----|

[CHORUS]

e|-----------------------------------|---------------------------------------|
B|-----------------------------------|---------------------------------------|
G|--------------7--------2-----------|----------------7--------2-------------|
D|------7------------------------2---|-------7--------------------------2----| x2
A|----------5-5--------------3-3-----|------------5-5---------------3-3------|
E|--5-5--------------3-3-------------|---5-5---------------3-3---------------|     

 [VERSE 2]

e|--------------------------------|
B|--------------------------------|
G|----------7--7--7---------------|
D|--7--7----7--7--7----7--7--7----| x1
A|--7--7----5--5--5----7--7--7----|
E|--5--5---------------5--5--5----|
 
e|------------------------------------------------|
B|------------------------------------------------|
G|----------7--7--7---------------5--5--4---------|
D|--7--7----7--7--7----5--5--5----5--5--4--(7)----| x4
A|--7--7----5--5--5----5--5--5----3--3--2--(7)----|
E|--5--5---------------3--3--3-------------(5)----|

[CHORUS]

e|-----------------------------------|---------------------------------------|
B|-----------------------------------|---------------------------------------|
G|--------------7--------2-----------|----------------7--------2-------------|
D|------7------------------------2---|-------7--------------------------2----| x2
A|----------5-5--------------3-3-----|------------5-5---------------3-3------|
E|--5-5--------------3-3-------------|---5-5---------------3-3---------------|

[BRIDGE]

e|------------------------------------------------|
B|------------------------------------------------|
G|----------7--7--7---------------5--5--4---------|
D|--7--7----7--7--7----5--5--5----5--5--4--(7)----| x2
A|--7--7----5--5--5----5--5--5----3--3--2--(7)----|
E|--5--5---------------3--3--3-------------(5)----|

[CHORUS]

e|-----------------------------------|---------------------------------------|
B|-----------------------------------|---------------------------------------|
G|--------------7--------2-----------|----------------7--------2-------------|
D|------7------------------------2---|-------7--------------------------2----| x4
A|----------5-5--------------3-3-----|------------5-5---------------3-3------|
E|--5-5--------------3-3-------------|---5-5---------------3-3---------------|

[OUTRO] 

e|------------------------------------------------|
B|------------------------------------------------|
G|----------7--7--7---------------5--5--4---------|
D|--7--7----7--7--7----5--5--5----5--5--4--(7)----| x1
A|--7--7----5--5--5----5--5--5----3--3--2--(7)----|
E|--5--5---------------3--3--3-------------(5)----|    

***********************************
(n) = ghost note
***********************************
Suggest correction
Give kudos to tab author, rate the tab!
1 2 3 4 5
comments
print report bad tab
2 comments total.
0 reply
cameronneilha 10 Nov 11, 2016 11:32 AM

I think the tab bit for the riff is played on bass with the power chords underneath it on the guitar

guest
You may want to rate the tab now too:
select rating
Wanna post a correction for this tab? Suggest correction