Oops, an error
Loading. Please wait.

Abrazando El Rock´n Roll Tab

version 1
version 1

Whole song

431 views 3 this week
no commentswrite comment
1 2 3 4 5
please rate
add to favorites
launch autoscroll
font size
0
reset
how to read this tab
guitar tuner
Autoscroll
slow
fast
+/-
esc
set tempo
stop
Help us to improve Ultimate-Guitar.com Take our survey!
×
Intro: Riff 1, (A5, D5, F5, D5)x4

           A5
Vamos en camino
G5         F5
 a tocar una vez mas
A5     G5         F5        C5
 rutas, escenarios y al final
A5            A5/6*
 como los gitanos
G5          F5       
 dejaremos todo atras
A5               A5/6
 tiemblan las ciudades
G5            F5    Riff 2
 y un estadio gritara.

  Estribillo:
C5            G5
 No sere uno mas
     A5                      G5
rocknroll, vos me diste libertad
Riff 2
C5            G5
 no sere uno mas
         A5                    G5  Riff 3
junto a vos, estoy vivo de verdad
A5
 puedo sentir, puedo soñar
D5                    F5
 y enfrentar a cierta gente
                     A5
que no siente lo mismo.

repite intro x2

Somos los extraños 
que a tu pueblo llegaran
como los viajeros sin hogar
bandas callejeras
nis esperan al llegar
y gente esta noche
cantaran en el lugar 

Estribillo

No sere uno mas
rocknroll, vos me diste libertad
no sere uno mas
junto a vos, estoy vivo de verdad
puedo sentir, puedo soñar
y enfrentar a cierta gente
que no entienda cual 
E5           F5 D5
es mi pasion 
E5           F5 D5
es mi verdad
E5           F5 D5
mi identidad
es mi cancion.


Riff 4

Base del Solo: A5, F5 G5 x4
Estribillo
Final: acordes del estribillo y solo.


Riff 1:
E|------------------|
B|------------------|
G|------------------|
D|--------------2---|
A|--------3-----0---|
E|--0--3-----3------|


Riff 2
E|--------------|
B|--------------|
G|--------------|
D|--------------|
A|--------1--3--|
E|--1--3--------|


Riff 3
E|--------------|
B|--------------|
G|--------------|
D|--------------|
A|--------------|
E|--5--4--3--1--|


Riff 4
E|--------------------------------------------
B|--------------------------------------------
G|--5--------4--------5--------4--------5--4--
D|--3--3--3--3--3--3--3--3--3--3--3--3--3--3--
A|--------------------------------------------
E|--------------------------------------------

E|--------------------------------------------|
B|--------------------------------------------|
G|--5--------4--------5--------4--------5--4--|
D|--5--5--5--5--5--5--5--5--5--5--5--5--5--5--|
A|--------------------------------------------|
E|--------------------------------------------| x3

E|----------------------------------------------|
B|----------------------------------------------|
G|--5---------4---------5---------4---------5-4-|
D|--3-3-3-3-3-3-3-3-3-3-3-3-3-3-3-3-3-3-3-3-3-3-|
A|----------------------------------------------|
E|----------------------------------------------|

E|----------------------------------------------|
B|----------------------------------------------|
G|--5---------4---------5---------4---------5-4-|
D|--5-5-5-5-5-5-5-5-5-5-5-5-5-5-5-5-5-5-5-5-5-5-|
A|----------------------------------------------|
E|----------------------------------------------|

 Bueno aca les mando este temaso de Rata que lo saco un amigo,
 y yo le arregle algunas cositas que estaban mal.
espero que les guste y si tienen alguna duda o correccion escribanme 
a esta direccion m_pignatelli@hotmail (Mariano)

Pd:*si saben cual es esta nota diganme o si es otra lo mismo.
Pd 2: si tienen La Boca Del Lobo u otro tema mandenmelo tambien.
Gracias               
               AGUANTE RATA BLANCA!!!!!!!!!!!!!!!!!!!!!
Suggest correction
Give kudos to tab author, rate the tab!
1 2 3 4 5
comments
print report bad tab
guest
You may want to rate the tab now too:
select rating
Wanna post a correction for this tab? Suggest correction