Oops, an error
Loading. Please wait.

Chico Callejero tab

804 views 15 this week
no commentswrite comment
1 2 3 4 5
2 more votes to show rating
add to favorites
×
Save as Personal and add changes to this tab that will be seen only by you. Learn more ›
×
You can save this tab as Personal to edit and correct it or add notes. All changes will be seen only by you. Learn more »
launch autoscroll
font size
0
reset
how to read this tab
guitar tuner
edit
Autoscroll
slow
fast
+/-
esc
set tempo
stop
Que tal, aqui les dejo otra rolasa de rata
Espero que sea de su agrado la manera en que lo pude sacar.
Esta en afinacion normal... Ah! Y perdon pero aun no pude sacar el solo.
Si les gusta voten... cualquier consulta me escriben a mi msn
diego_mg1589@

  Intro
1|--------------------------------------|---------|
2|--------------------------------------|---------|
3|--------------------------------------|---------|
4|-888888888888888888888888888888888888-|-11-10-8-|
5|-666666666666666666666666666666666666-|--9-8?-6-|
6|--------------------------------------|---------|
   ....................................             pm

   Riff 1
1|--------------------------------------------------|
2|-4-2---4------2-----4------4-2---4--------7-7-6-4-|
3|-3-1---3------1-4---3------3-1---3------6-6-6-5-3-|
4|----------------4-----------------------6---------|
5|--------------------------------------------------|(1º gtra)
6|--------------------------------------------------|

1|------------------------------------------------|
2|-4-2---4------2-----4------4-2---4------4-7-6-4-|
3|-3-1---3------1-4---3------3-1---3------3-6-5-3-|
4|----------------4-------------------------------|
5|------------------------------------------------|
6|------------------------------------------------|

1|-----------------------------------------------------|
2|-----------------------------------------------------|
3|-----------------------------------------------------|
4|-8-6---8------6-4---8------8-6---8--------11-11-10-8-|
5|-6-4---6------4-2---6------6-4---6------11-9?9--8?-6-|(2º gtra)
6|-----------------------------------------9-----------|

1|--------------------------------------------------|
2|--------------------------------------------------|
3|--------------------------------------------------|
4|-8-6---8------6-4---8------8-6---8------8-11-10-8-|
5|-6-4---6------4-2---6------6-4---6------6?9---8-6-|
6|--------------------------------------------------|


      Callejero                  eres dueño
1|-----------------------------------------|
2|-----------------------------------------|
3|-----------------------------------------|
4|-----888888888---11-10-8---888888888-----|
5|-----666666666----9-8?-6---666666666-----|
6|-----------------------------------------|
       .........             .........       pm

              de tus sueños, tu vida y tu libertad
1|-----------------------------------------------------------------|
2|-----------------------------------------------------------------|
3|-6---------------------------------------------------------6-----|
4|-4-4-6---6666666-----------------------------------6-666---4-6-8-|
5|---2-4---4444444---6-666666666----------4-44444444-4-444-----4-6-|
6|-------------------4-444444444----------2-22222222---------------|
           .......     .........            ........   ...           pm

       Y tus caminos           son eternos
1|-----------------------------------------|
2|-----------------------------------------|
3|-----------------------------------------|
4|-----888888888---11-10-8---888888888-----|
5|-----666666666----9-8?-6---666666666-----|
6|-----------------------------------------|
       .........             .........       pm

           Aunque busques un punto donde llegar
1|------------------------------------------------------------------|
2|------------------------------------------------------------------|
3|-6----------------------------------------------------------------|
4|-4-4-6---666666---------------------------------------------------|
5|---2-4---444444-6-6666666-----------4-4444444---8-----9-8-6-----9-|
6|----------------4-4444444-----------2-2222222---6---6-------9-6-7-|
           ......   .......             .......                       pm

    Solo vos      sabes como y donde se tranza
1|-----------------------------------------------------|
2|-----------------------------------------------------|
3|-----------------------------------------------------|
4|--------6-666666----------------------8-8888---6---4-|
5|-999999-4-444444---8-88888888---------6-6666---4---2-|
6|-777777------------6-66666666------------------------|
   ......   ......     ........           ....           pm

     Porque la calle es tu verdad...    Porque vos siempre seras
1|---------------------------------------------------------------|
2|---------------------------------------------------------------|
3|---------------------------------------------------------------|
4|---44444444----------------------------------------------------|
5|---22222222-----------6-6666666-----9-9999999--------------8---|
6|----------------------4-4444444-----7-7777777--------------6---|
     ........             .......       .......                    pm


  ¡¡Un chico callejero!!...

Repetir Riff 1

(aqui igual que la primera parte)

Y tu familia no te reprocha
Esa forma de vida que vos llevas
No te aflijas, ellos piensan
Que la vida se pasa en sociedad

Puedes ver que el mundo sirve de poco
Y de la calle aprenderás
Verás la vida real de los hombres sencillos

  (Acompañamiento del solo)

1|----------------------------------------------|
2|----------------------------------------------|
3|----------------------------------------------|
4|-8-888888-----------------------------11-10-8-|
5|-6-666666-9-999999-8-8888888-8-8888----9--8-6-|
6|----------7-777777-6-6666666-6-6666-----------|(X3)
     ......   ......   .......   ....             pm

1|-----------------------------|
2|-----------------------------|
3|-----------------------------|
4|-11-10-8---888888------------|
5|--9-8?-6---666666-9-999999-8-|
6|------------------7-777777-6-|
             ......   ......     pm

1|-------------------------------------------------|
2|-------------------------------------------------|
3|-------------------------------------------------|
4|-------------------------------------------------|
5|---9-6-8---8------9-6-8---8------9-8-5-------8---|
6|---7-4-6---6------7-4-6---6------7-6-4---4-4-6---|
                                           . .       pm

(continua igual que la primera parte)

Callejero hoy seremos
Compañeros y amigos una vez mas
Callejero nuestros sueños
Nos convierten en héroes de la ciudad

No podrán sistemas de policías
Arrancar de tu alma ya
Ese gusto de ser un chico callejero.


  Riff final
1|-------|-------------------------------
2|-------|-------------------------------
3|-------|-------------------------------
4|-------|---7/8-6---7/8-6---7/8-6-------
5|-4-3-6-|---5/6-4---5/6-4---5/6-4-9-6---
6|-2-1-6-|-------------------------7-6--- varias veces...


Diego M.G.
Comas ? Lima - Perú
Suggest correction
Creating personal tab
Creating personal tab
You can edit any tab online and save it as your Personal.

You can edit, replace or remove any tab part or add personal notes – all changes will be seen only by you.

Personal tabs can be accessed anytime from any device, even offline.
Learn more »
Give kudos to tab author, rate the tab!
1 2 3 4 5
comments
print report bad tab
guest
Wanna post a correction for this tab? Suggest correction