Oops, an error
Loading. Please wait.

Cuando Hoy Es Ayer tab

version 1
version 1

Whole song

Interactive

234 views 1 this week
no commentswrite comment
1 2 3 4 5
3 more votes to show rating
add to favorites
×
Save as Personal and add changes to this tab that will be seen only by you. Learn more ›
×
You can save this tab as Personal to edit and correct it or add notes. All changes will be seen only by you. Learn more »
launch autoscroll
font size
0
reset
how to read this tab
guitar tuner
edit
Autoscroll
slow
fast
+/-
esc
set tempo
stop
Hola como andan, les dejo esta cancion piola q saque ayer por la
noche, esta piola para tocarla tipo acustica, no es nada dificil,
para nada dificil, eso si, hay que dos tonos la guitarra, o suena
mal... bueno sin mas q decir se las dejo, aguante la escuela
Republica de la India jajajaja......._CHeToX_

Intro: SOL-MIm x2

SOL                     MIm
Dónde irás cuando se termine el show
SOL               MIm
andarás hasta que salga el sol
LAm             REsus2  RE      REsus4 RE
Aunque todo parece    estar bien
LAm                  FA     DO   SOL
es extraño sentir que   hoy es ayer

Sol-Mim x2 acompañado con riff

(aqui las mismas notas anteriores y se puede acompañar con algun
arpegio de la electrica)

A los bares vamos a buscar
que la noche se mantenga igual
Aunque un pájaro te de a entender
que hoy es hoy aunque te aferres al ayer

LAm              MI*
En un camarín vació
  SOL                RE (REsus2)
doy un trago y te confío ohhh ouooo
LAm                 MI*   SOL
que me esperan mis amigos en un bar
       RE (REsus2)
para solucionar?nada

Solo:

    LAm       MI*   SOL RE                              LAm
e|------------------------------------------------------------------|
B|--8b-10b----8b-10b---10bh8p10~---10----10-------------8b-10b--8---|
G|---------9~--------9~----------9b---9b---9b-9b-7---7~-------9~--9~|
D|-------------------------------------------------9----------------|
A|------------------------------------------------------------------|
E|------------------------------------------------------------------|

    MI*    SOL      RE                             DO
e|-------------------10~----10---12---14-14b-12-14-14b-12----12-----|
B|--8b-10b----s12-12----s10---10---10---------------------14b---14b-|
G|---------9~-------------------------------------------------------|
D|------------------------------------------------------------------|
A|------------------------------------------------------------------|
E|------------------------------------------------------------------|

   LAm                   MI*
e|------------------------------------------------------------------|
B|-14b-13-12-13b-15b-15b-15b-12~----------12------------------------|
G|----------------------------------12-14-14b-12--12----------------|
D|-------------------------------14-------------14--14~-12b-9-------|
A|-----------------------------------------------------------12-10--|
E|----------------------------------------------------------------12|

       DO                LAm                            RE
e|-17b-15~-14b-12~----12-12---------------------7-8-8b-7---|
B|-----------------14b---14b-13h12p13h12-10h8p10--------10~|
G|---------------------------------------------------------|
D|---------------------------------------------------------|
A|---------------------------------------------------------|
E|---------------------------------------------------------|

e|----------14--17--14--------|
B|----15-17---15--15----------|
G|-s14----------------14--11b-|
D|----------------------------|
A|----------------------------|
E|----------------------------|

Sol-Mim x2 acompañado con riff

SOL                     MIm
Dónde irás cuando se termine el show
SOL               MIm
andarás hasta que salga el sol
LAm             REsus2  RE      REsus4 RE
Aunque todo parece    estar bien
LAm                  FA     DO   SOL
es extraño sentir que   hoy es ayer
FA  DO  SOL
Uhh Uhh Uhhhhhhhh

Acordes:

REsus2
e|-3-|
B|-3-|
G|-2-|
D|-0-|
A|-0-|
E|-0-|

REsus4
e|-0-|
B|-3-|
G|-2-|
D|-0-|
A|-0-|
E|-0-|

MI*
e|-0-|
B|-0-|
G|-0-|
D|-2-|
A|-2-|
E|-3-|

Riff:

e|-3s5-5s3-5s3-3~-3s5-5s3-5s3-3~-3s5-5s3-5s3-3~-3s5-3-2-3-2-0|
B|-3s5-5s3-5s3-3~-3s5-5s3-5s3-3~-3s5-5s3-5s3-3~-3s5-3-3-3-3-0|

Salta Capital - Argentina   14.09.08

            
            
Suggest correction
Creating personal tab
Creating personal tab
You can edit any tab online and save it as your Personal.

You can edit, replace or remove any tab part or add personal notes – all changes will be seen only by you.

Personal tabs can be accessed anytime from any device, even offline.
Learn more »
Give kudos to tab author, rate the tab!
1 2 3 4 5
comments
print report bad tab
guest
Wanna post a correction for this tab? Suggest correction