Oops, an error
Loading. Please wait.

Cuando La Luz Obscurece bass

82 views 1 this week
no commentswrite comment
1 2 3 4 5
3 more votes to show rating
add to favorites
×
Save as Personal and add changes to this tab that will be seen only by you. Learn more ›
×
You can save this tab as Personal to edit and correct it or add notes. All changes will be seen only by you. Learn more »
launch autoscroll
font size
0
reset
guitar tuner
edit
Autoscroll
slow
fast
+/-
esc
set tempo
stop
Hola pibes, que onda che??todo bien?? Bueno le traigo a ustedes
mi primera transcripcion de un temazo de "LA RATA" espero que lo
disfruten y que sepan aceptar los errores, ah y correjirlos jaja...
Y la forma de tocar cada nota en los punteos son faciles de obtener
simplemene hay que escucharlos en la cancion, no los pongo porque
en el tema el bajo suena fuerte y se pueden sacar con mucha
facilidad...

Introduccion:
La inroduccion se basa en silencio durante el riff inicial
y las notas que suenan durante el punteo que realiza Walter
con la guitarra son B5 A5 E5 D5 G5 B5.

Estrofa: (Puedo sentir...)y la 2ª vez (Me dio su amor...)
1/----------------------------------------------//
2/----------------------------------------------// X2
3/--2--2-2--1---------7-5--5-5----------2--2-2--//
4/------------5--5-5------------3--3-3----------//

Estribillo: (Se fue sin prisa...)
1/----------------------------------------------//
2/----------------------------------------------//
3/---------------------2~----------2~-----------//
4/--5--5-5--3-5--5-5-------3~--0~------3~--5~---//

(y en ese instante...)
1/---------------------------------------------------//
2/---------------------------------------------------//
3/--2~-----------------------2~----------2~----------//
4/------3~--0~--5~--2--2-2-------3~--0~------3~--5~--//

(que en esta fria...)
1/---------------------------------------------------//
2/---------------------------------------------------//
3/--2~------------------2~~--------------------------//
4/------3~--0~--5~--3~-------------------------------//

En esta parte de la cancion Walter toca un solo de que seria
el prinero y las notas del bajo que suenan son B5 A5 E5 D5 G5 B5.

2ª Estrofa: (Puedo sentir...)y la 2ª vez (y ese dolor...)
1/----------------------------------------------//
2/----------------------------------------------// X2
3/--2--2-2--1---------7-5--5-5----------2--2-2--//
4/------------5--5-5------------3--3-3----------//

2ª Estribillo: (Se fue despacio...)
1/----------------------------------------------//
2/----------------------------------------------//
3/---------------------2~----------2~-----------//
4/--5--5-5--3-5--5-5-------3~--0~------3~--5~---//

(sin ella no hay...)
1/---------------------------------------------------//
2/---------------------------------------------------//
3/--2~-----------------------2~----------2~----------//
4/------3~--0~--5~--2--2-2-------3~--0~------3~--5~--//

(y el mundo era...)
1/---------------------------------------------------//
2/---------------------------------------------------//
3/--2~------------------2~~--------------------------//
4/------3~--0~--5~--3~-------------------------------//

Esta es la parte que la guitarra toca el solo principal(o mas largo)
y por eso las notas del bajo son muchas, espero que no se pierdan:
B5 A5 E5 D5 G5 B5
A5 G5 A5 B5 G5 E5 B5 G5 A5 B5 G5 E5 A5 F#5 B5 G5
E5 B5 G5 A5 B5 G5 E5 A5 G5 B5

3ª Estrofa: (Quisiera hoy...)y la 2ª vez (y detener...)
1/----------------------------------------------//
2/----------------------------------------------// X2
3/--2--2-2--1---------7-5--5-5----------2--2-2--//
4/------------5--5-5------------3--3-3----------//

3ª Estribillo: (Pero es inutil...)
1/----------------------------------------------//
2/----------------------------------------------//
3/---------------------2~----------2~-----------//
4/--5--5-5--3-5--5-5-------3~--0~------3~--5~---//

(sin ella no hay...)
1/---------------------------------------------------//
2/---------------------------------------------------//
3/--2~-----------------------2~----------2~----------//
4/------3~--0~--5~--2--2-2-------3~--0~------3~--5~--//

(en esta fria habitacion)
1/---------------------------------------------------//
2/---------------------------------------------------//
3/--2~-----------------------------------------------//
4/------3~--0~--5~--5-5~-----------------------------//

(Me dio su amor...)
1/---------------------------------------------------//
2/---------------------------------------------------//
3/--2~----------2~----------2~-----------------------//
4/------3~--0~------3~--5~------3~--0~--5~~----------//

Hasta el final la guitarra hace un solo en el cual el bajo lleva
las siguientes notas:
B5 G5 E5 B5 G5 A5
B5 G5 E5 A5 F#5

Aca les dejo la letra para que se guien:
"Cuando la Luz Oscurece"

Puedo sentir que lentamente
ella me deja para siempre.
Me dio su amor, me dio su cuerpo,
y amarnos fue nuestro secreto...

Se fue sin prisa, perdió su aliento.
Alguien lloró, y yo también,
y en ese instante se alejó.
Y el sol entró sin comprender,
que en esta fría habitación...
la luz oscurece.

Solo 1<--

Puedo sentir en mi silencio,
cómo su adiós golpeó en mi pecho.
Y ese dolor trajo recuerdos,
cuando jurábamos lo eterno...

Se fue despacio, dejó una brisa.
Y amaneció, lo se muy bien,
sin ella no hay una razón.
Me dio su amor, y yo también,
y el mundo era de los dos,
nuestro para siempre... solo...

Solo Principal<--

Quisiera hoy, volver el tiempo,
para encontrar aquel invierno.
Y detener aquel momento,
donde fundimos nuestros cuerpos...

Pero es inútil, estás tan lejos.
Y amaneció, lo se muy bien,
sin ella no hay una razón.
Y el sol entró, sin comprender,
en esta fría habitación...
Me dio su amor, y yo también,
y el mundo era de los dos...

Solo final<--
                             ---->FIN<----

Antes que nada quiero dedicarle esta cancion a mis ex novias porque yo
siempre arruino las relaciones(supuestamente), perdon...jajaja
Bueno me despido de ustedes, espero que lo hayan disfrutado...
Les mando saludos a todos los pibes de mi barrio (escobar) y aguante el
C.d.V. (somos lo mas..jejeje), tambien Rata blanca, Mago de Oz,
La Renga y otros jajaja.
                          ####  ##   ##  #####
                          #     # # # #    #
                          ##    #  #  #    #
                          #     #     #    #
                          #     #     #    #

            
            
Suggest correction
Creating personal tab
Creating personal tab
You can edit any tab online and save it as your Personal.

You can edit, replace or remove any tab part or add personal notes – all changes will be seen only by you.

Personal tabs can be accessed anytime from any device, even offline.
Learn more »
Give kudos to tab author, rate the tab!
1 2 3 4 5
comments
print report bad tab
guest
Wanna post a correction for this tab? Suggest correction