Oops, an error
Loading. Please wait.

La Boca Del Lobo tab

154 views 1 this week
no commentswrite comment
1 2 3 4 5
3 more votes to show rating
add to favorites
×
Save as Personal and add changes to this tab that will be seen only by you. Learn more ›
×
You can save this tab as Personal to edit and correct it or add notes. All changes will be seen only by you. Learn more »
launch autoscroll
font size
0
reset
how to read this tab
guitar tuner
edit
Autoscroll
slow
fast
+/-
esc
set tempo
stop
Bien, aqui les envio la unica cancion que faltaba transcrita
en el atame del disco Guerreros del Arcoiris (segun me
parece): La boca del lobo. Veran que no es tan dificil de
tocar -dejando de lado el solo de Walter, eso si. Si
encuentran, errores, haganmelo saber a mi mail. Bien, ahi
les va:

                               - o -

Afinación normal: E-A-D-G-B-e

Compás: 4/4


 = = Intro = =
  G                                 G
|---------------------------------|---------------------------------|
|---------------------------------|---------------------------------|
|---------------------------------|---------------------------------|
|---------------------------------|---------------------------------|
|----3--5-6--5--3-5--3----3-------|----3--5-6--5--3-5--3----3-------|
|-3---------------------6----6--5-|-3---------------------6----6--5-|

  D#              C                 D
|---------------------------------|---------------------------------|
|---------------------------------|---------------------------------|
|---------------------------------|---------------------------------|
|-------3-5--3--------------------|---------------------------------|
|----6----------6----6-5--3-------|-----------------5--3------------|
|----------------------------6--5-|----2--3-5--6--5-------6-5--3--2-|

  G                                 G                       F
|---------------------------------|---------------------------------|
|---------------------------------|---------------------------------|
|---------------------------------|---------------------------------|
|---------------------------------|---------------------------------|
|----3--5-6--5--3-5--3----3-------|----3--5-6--5--3-5--3----3-------|
|-3---------------------6----6--5-|-3---------------------6----6--5-|

 = = Verso 1 = =
  G                                         F       G
|---------------------------------|---------------------------------|
|---------------------------------|---------------------------------|
|---------------------------------|---------------------------------|
|---------------------------------|---------------------------------|
|-5-----------------------3-------|-3-------3-------5-----5-3-------|
|-3--------------------------6--5-|-5-------1-------3----------6--5-|
  Es su color la oscuridad,                 vive entre sombras
  G               D#                F               A#
|---------------------------------|---------------------------------|
|---------------------------------|---------------------------------|
|---------------------------------|---------------------------------|
|-----------------8---------------|-----------------3-------0---1---|
|-5---------------6---------------|-3-------0-------1---3-----------|
|-3-------------------------------|-1-------------------------------|
    Ver atras     es recordar               nubes sin forma    Y su am
  F                                                 G
|---------------------------------|---------------------------------|
|---------------------------------|---------------------------------|
|---------------------------------|---------------------------------|
|---3-----3---------3-----3-------|---3-----3---------5-----5-------|
|---------------------------------|---------------------------------|
|-1-----1---------1-----1---------|-1-----1---------3-----3---------|
  mor                                    mas que su herida
                  F
|---------------------------------|---------------------------------|
|---------------------------------|---------------------------------|
|---------------------------------|---------------------------------|
|---5-----5---------3-----3-------|---3-----3---------3-----3-------|
|---------------------------------|---------------------------------|
|-3-----3---------1-----1---------|-1-----1---------1-----1---------|
           Le enseño a luchar                               por esta
  D
|---------------------------------|
|---------------------------------|
|-----------------7-------7v\-----|
|-7-------------------------------|
|-5-------------------------------|
|---------------------------------|
  vida

 = = Variación del Intro - Riff 1 = =
  G                                 G
|---------------------------------|---------------------------------|
|---------------------------------|---------------------------------|
|---------------------------------|---------------------------------|
|---------------------------------|---------------------------------|
|----3--5-6--5--3-5--3----3-------|----3--5-6--5--3-5--3----3-------|
|-3---------------------6----6--5-|-3---------------------6----6--5-|

  D#              C                 D
|---------------------------------|---------------------------------|
|---------------------------------|---------------------------------|
|---------------------------------|---------------------------------|
|-------3-5--3--------------------|---------------------------------|
|----6----------6----6-5--3-------|-----------------3/5-3-----------|
|----------------------------6--5-|----2--3-5--6--5-------6-5--3--2-|

 = = Verso 2 = =
  G                                         F       G
|---------------------------------|---------------------------------|
|---------------------------------|---------------------------------|
|---------------------------------|---------------------------------|
|---------------------------------|---------------------------------|
|-5-----------------------3-------|-3-------3-------5-----5-3-------|
|-3--------------------------6--5-|-5-------1-------3----------6--5-|
  Yo le conte alguna vez                    del arco iris
  G               D#                F               A#
|---------------------------------|---------------------------------|
|---------------------------------|---------------------------------|
|---------------------------------|---------------------------------|
|-----------------8---------------|-----------------3-------0---1---|
|-5---------------6---------------|-3-------0-------1---3-----------|
|-3-------------------------------|-1-------------------------------|
  el me sonrio    se que penso              que era imposible  Y aunque
  F                                                 G
|---------------------------------|---------------------------------|
|---------------------------------|---------------------------------|
|---------------------------------|---------------------------------|
|---3-----3---------3-----3-------|---3-----3---------5-----5-------|
|---------------------------------|---------------------------------|
|-1-----1---------1-----1---------|-1-----1---------3-----3---------|
  hoy                                     llora su alma
                  F
|---------------------------------|---------------------------------|
|---------------------------------|---------------------------------|
|---------------------------------|---------------------------------|
|---5-----5---------3-----3-------|---3-----3---------3-----3-------|
|---------------------------------|---------------------------------|
|-3-----3---------1-----1---------|-1-----1---------1-----1---------|
           en su rostro hay                               una espe-
  D
|---------------------------------|
|---------------------------------|
|---------------------------------|
|-7---------------4-------5/7-----|
|-5-------------------------------|
|---------------------------------|
  ranza

 = = Se repite la variación del Intro - Riff 1 = =

 = = Solo = = (Solo el principio, eso si. No soy capaz de sacar el
               resto...)
|-----------------------------------------------------------------|----|
|-----------------------------------------------------------------|----|
|-7-5-8-5-7-8---5-7-5-8-5-7-5---5-7-8-5-5b7-------------------5h3-|-5v-|
|-------------8---------------8-----------------------------------|----|
|-----------------------------------------------------------------|----|
|-----------------------------------------------------------------|----|

 = = Verso 3 = =
  G                                         F       G
|---------------------------------|---------------------------------|
|---------------------------------|---------------------------------|
|---------------------------------|---------------------------------|
|---------------------------------|---------------------------------|
|-5-----------------------3-------|-3-------3-------5-----5-3-------|
|-3--------------------------6--5-|-5-------1-------3----------6--5-|
  Su tacto hoy endurecio                    con su pasado
  G               D#                F               A#
|---------------------------------|---------------------------------|
|---------------------------------|---------------------------------|
|---------------------------------|---------------------------------|
|-----------------8---------------|-----------------3-------0---1---|
|-5---------------6---------------|-3-------0-------1---3-----------|
|-3-------------------------------|-1-------------------------------|
  Su cuerpo igual que su baston             viejo y gastado   Y ele-
  F                                                 G
|---------------------------------|---------------------------------|
|---------------------------------|---------------------------------|
|---------------------------------|---------------------------------|
|---3-----3---------3-----3-------|---3-----3---------5-----5-------|
|---------------------------------|---------------------------------|
|-1-----1---------1-----1---------|-1-----1---------3-----3---------|
  vo                                    la vista al cielo,
                  F
|---------------------------------|---------------------------------|
|---------------------------------|---------------------------------|
|---------------------------------|---------------------------------|
|---5-----5---------3-----3-------|---3-----3---------3-----3-------|
|---------------------------------|---------------------------------|
|-3-----3---------1-----1---------|-1-----1---------1-----1---------|
           por sentir el sol                               entre sus
  D               F#
|---------------------------------|
|---------------------------------|
|---------------------------------|
|-7--------------11---------------|
|-5-----------7---9---------------|
|---------------------------------|
  dedos                     Asi vivio

 = = Outro = =
  G
|---------------------------------|---------------------------------|
|---------------------------------|---------------------------------|
|---------------------------------|---------------------------------|
|---------------------------------|---------------------------------|  x4
|----3--5-6--5--3-5--3----3-------|----3--5-6--5--3-5--3----3-------|
|-3---------------------6----6--5-|-3---------------------6----6--5-|
                                                          Con lo imposible
  G               F   G
|---------------------------------|
|----[???????]--------------------|
|---------------------------------|
|---------------------------------|
|-5---------------3---5-----------|
|-3---------------1---3-----------|

Fin
Suggest correction
Creating personal tab
Creating personal tab
You can edit any tab online and save it as your Personal.

You can edit, replace or remove any tab part or add personal notes – all changes will be seen only by you.

Personal tabs can be accessed anytime from any device, even offline.
Learn more »
Give kudos to tab author, rate the tab!
1 2 3 4 5
comments
print report bad tab
guest
Wanna post a correction for this tab? Suggest correction