Oops, an error
Loading. Please wait.

Madame X tab

109 views 1 this week
no commentswrite comment
1 2 3 4 5
3 more votes to show rating
add to favorites
×
Save as Personal and add changes to this tab that will be seen only by you. Learn more ›
×
You can save this tab as Personal to edit and correct it or add notes. All changes will be seen only by you. Learn more »
launch autoscroll
font size
0
reset
how to read this tab
guitar tuner
edit
Autoscroll
slow
fast
+/-
esc
set tempo
stop
 ¡Aguante Rata!

Afinacion: Drop-D (en RE) D-A-D-G-B-e

Intro: teclado y bajo 
       D  E  G          
                      e|-----------|
                      B|-----------|
                      G|-----------|
                      D|-\5-5-3-1--|
                      A|-\5-5-3-1--|
                      D|-\5-5-3-1--|
                      PM    .....              
Riff1
e|---------------------------------------------| 
B|---------------------------------------------|
G|---------------------------------------------|
D|-0-0-3p0-3p0-3p0--3-5--0-0-3p0-3p0-3p0--5-3--|
A|-0-0-3p0-3p0-3p0--3-5--0-0-3p0-3p0-3p0--5-3--|
D|-0-0-3p0-3p0-3p0--3-5--0-0-3p0-3p0-3p0--5-3--|
 
Riff2
e|---------| x4 
B|---------|
G|---------|
D|-0-0--0--|
A|-0-0--0--|
E|-0-0--0--|
P.M...
 


 Riff1 x4              Riff2 x4   

 Madame X sigo estando aquí

   C5    A5         C5     A#5       C5     A5           D   G   A   G 
e|---------------------------------|-------------------------------------|
B|---------------------------------|-------------------------------------|
G|---------------------------------|-------------------------------------|
D|-5-5-5-5-5-5------7-7-7--8-8-8---|-5-5-5--5-5-5--------0-0-3-3-0-0-3-3-|
A|-3-3-3-5-5-5------5-5-5--8-8-8---|-3-3-3--5-5-5--------0-0-3-3-0-0-3-3-|
E|-------5-5-5-------------8-8-8---|--------5-5-5--------0-0-3-3-0-0-3-3-|
   soportando miles de conjuros      y bien sabes que es así.
 
  C5     A5         D5     A#5       C5              C5 
e|---------------------------------|----------------------------------------|
B|---------------------------------|----------------------------------------|
G|---------------------------------|-(7)------------------------------------|
D|-5-5-5-5-5-5------7-7-7--8-8-8---|-(7)-------------5-5-5-5----------------|
A|-3-3-3-5-5-5------5-5-5--8-8-8---|-(5)-------------3-3-3-3----------------|
E|-------5-5-5-------------8-8-8---|----------------------------------------|
   Caminando en este mundo oscuro,   buscando fuerzas       para sobrevivir.


  Necesito un poco de luz.           
  Sabes que pronto serás cenizas     si te pongo frente a Dios.        
  La batalla puede ser muy corta     y no me importa comer tu corazón.

Inter:                                                                                        x4
|---------------| x3  -- Luego viene un   |--------------------------------------------------|
|---------------|       punteo y despues  |--------------------------------------------------|
|---------------|        esto ----------> |--------------------------------------------------|
|-\\(5)--5-3-1--|                         |-7-5-\12/8\10-10-10-10/7\9-9-9-9\10/7-7-7-7-10-9--|
|-\\(5)--5-3-1--|                         |-5-3-\10/6\8--8--8--8-/5\7-7-7-7\8-/5-5-5-5-8--7--|
|-\\(5)--5-3-1--|                         |--------------------------------------------------|
PM       . .


 rapido x8
|--------|    |---------------|
|--------|    |---------------|
|--------|    |---------------|
|-5-3-0--|    |-5---3---1-----|
|-5-3-0--|    |-5---3---1-----|
|-5-3-0--|    |-5---3---1-----|


  Dama oculta, de la oscuridad,   
  tu poder no cambiará el destino,   sólo puedes escapar.

  Mi Señor me puso en esta tierra
  con un mensaje que tengo que entregar...
  que tengo que entregar...
  que tengo que entregar.

            
            
Suggest correction
Creating personal tab
Creating personal tab
You can edit any tab online and save it as your Personal.

You can edit, replace or remove any tab part or add personal notes – all changes will be seen only by you.

Personal tabs can be accessed anytime from any device, even offline.
Learn more »
Give kudos to tab author, rate the tab!
1 2 3 4 5
comments
print report bad tab
guest
Wanna post a correction for this tab? Suggest correction