Oops, an error
Loading. Please wait.

Michell, Odia La Oscuridad tab

version 1
version 1

Whole song

343 views 1 this week
no commentswrite comment
1 2 3 4 5
3 more votes to show rating
add to favorites
×
Save as Personal and add changes to this tab that will be seen only by you. Learn more ›
×
You can save this tab as Personal to edit and correct it or add notes. All changes will be seen only by you. Learn more »
launch autoscroll
font size
0
reset
how to read this tab
guitar tuner
edit
Autoscroll
slow
fast
+/-
esc
set tempo
stop
HOLA BANDA ROCKANROLERA ESTA ROLA ES DE MIS FAVORITAS DE LA
RATA..
  SALUDOS DESDE PUEBLA, HAGAN LLORAR LAS LIRAS
DE PURO Y AUTENTICO ROCK AND ROLL
PUROROCK_PABLO@


    INTRO:
e|--------------------------------------------------------------
B|--------------------------------------------------------------
G|-------------------6-------------------------6----------------
D|-------6-----6-7-8---8-7-6-------------6-7-8---8-7-6----------
A|-6-9-6---6-9---------------9-6---6-9-6-----------------9-6----
E|--------------------------------------------------------------

e|--------------------------------------------------------------
B|--------------------------------------------------------------
G|-------------------6-------------------------6----------------
D|-------6-----6-7-8---8-7-6-------------6-7-8---8-7-6----------
A|-6-9-6---6-9---------------9-6---6-9-6-----------------9-6----
E|--------------------------------------------------------------

e|--------------------------------------------------------------
B|--------------------------------------------------------------
G|---------6----------------------------------------------------
D|---6-7-8---8-6------------------------------------------------
A|-9-------------9-6--------------------------------------------
E|--------------------------------------------------------------


G#5                 C#5      F#5
   Michell grito desperto en la oscuridad
e|--------------------------------------------------------------
B|--------------------------------------------------------------
G|--------------------------------------------------------------
D|---------------------------7-5---8-7-5---8-7------------------
A|-----------------------5-7-----7-------7-8-7------------------
E|--------------------------------------------------------------
 F#5
   con el eco de su voooooooooz

G#5                  C#5         F#5
   Siempre temio en dejarse convencer
e|--------------------------------------------------------------
B|--------------------------------------------------------------
G|--------------------------------------------------------------
D|---------------------------------3---5-4------3---5-4---------
A|-----------------------------4-5---5-5-4--4-5---5-5-4---------
E|--------------------------------------------------------------
 F#5
   por la bruja que el esconde en su placaaard
  e|--------------------------------------------------------------
  B|--------------------------------------------------------------
  G|--------------------------------------------------------------
  D|---------------------------7-5---8-7-5---8-7-7-5---8-7-5---8-7
  A|-----------------------5-7-----7-------7-8-7-----7-------7-8-7
  E|--------------------------------------------------------------
E5
Y en su hoooooogar esto a nadie le importoooooooo
E5                     C#5 B5 A#5 G#5
   Y él penso como tomar revaaaaaaancha

e|--------------------------------------------------------------
B|--------------------------------------------------------------
G|-------------------6-------------------------6----------------
D|-------6-----6-7-8---8-7-6-------------6-7-8---8-7-6----------
A|-6-9-6---6-9---------------9-6---6-9-6-----------------9-6----
E|--------------------------------------------------------------
                            tiempos violentos
e|--------------------------------------------------------------
B|--------------------------------------------------------------
G|-------------------6-------------------------6----------------
D|-------6-----6-7-8---8-7-6-------------6-7-8---8-7-6----------
A|-6-9-6---6-9---------------9-6---6-9-6-----------------9-6----
E|--------------------------------------------------------------
                           estan aqui
e|---------------------
B|---------------------
G|---------------------
D|-----8-6---6-6-------
A|-9-6-----9-6-6-------
E|---------------------

e|--------------------------------------------------------------
B|--------------------------------------------------------------
G|-------------------6-------------------------6----------------
D|-------6-----6-7-8---8-7-6-------------6-7-8---8-7-6----------
A|-6-9-6---6-9---------------9-6---6-9-6-----------------9-6----
E|--------------------------------------------------------------
                            siente su aliento
e|--------------------------------------------------------------
B|--------------------------------------------------------------
G|-------------------6-------------------------6----------------
D|-------6-----6-7-8---8-7-6-------------6-7-8---8-7-6----------
A|-6-9-6---6-9---------------9-6---6-9-6-----------------9-6----
E|--------------------------------------------------------------
                            y hoy van por ti
e|-------------------------
B|-------------------------
G|---------6---------------
D|---6-7-8---8-6-----------
A|-9-------------9-6-------
E|-------------------------


G#5                 C#5      F#5
   su soledad lo enredo en la confusion
e|--------------------------------------------------------------
B|--------------------------------------------------------------
G|--------------------------------------------------------------
D|---------------------------7-5---8-7-5---8-7------------------
A|-----------------------5-7-----7-------7-8-7------------------
E|--------------------------------------------------------------
 F#5
   y el no sabe que pensaaaaaaaaaaaar

G#5                  C#5         F#5
   hay dias que sueños crueles estaran
e|--------------------------------------------------------------
B|--------------------------------------------------------------
G|--------------------------------------------------------------
D|---------------------------------3---5-4------3---5-4---------
A|-----------------------------4-5---5-5-4--4-5---5-5-4---------
E|--------------------------------------------------------------
 F#5
   torturando su vacio corazooooooon
  e|--------------------------------------------------------------
  B|--------------------------------------------------------------
  G|--------------------------------------------------------------
  D|---------------------------7-5---8-7-5---8-7-7-5---8-7-5---8-7
  A|-----------------------5-7-----7-------7-8-7-----7-------7-8-7
  E|--------------------------------------------------------------
E5
Y encoooontro la bruja del placaaaaaaaaaard
E5                     C#5 B5 A#5 G#5
y saaaalio buscando a los culpaaaaaaables

e|--------------------------------------------------------------
B|--------------------------------------------------------------
G|-------------------6-------------------------6----------------
D|-------6-----6-7-8---8-7-6-------------6-7-8---8-7-6----------
A|-6-9-6---6-9---------------9-6---6-9-6-----------------9-6----
E|--------------------------------------------------------------
                            tiempos violentos
e|--------------------------------------------------------------
B|--------------------------------------------------------------
G|-------------------6-------------------------6----------------
D|-------6-----6-7-8---8-7-6-------------6-7-8---8-7-6----------
A|-6-9-6---6-9---------------9-6---6-9-6-----------------9-6----
E|--------------------------------------------------------------
                           estan aqui
e|---------------------
B|---------------------
G|---------------------
D|-----8-6---6-6-------
A|-9-6-----9-6-6-------
E|---------------------

e|--------------------------------------------------------------
B|--------------------------------------------------------------
G|-------------------6-------------------------6----------------
D|-------6-----6-7-8---8-7-6-------------6-7-8---8-7-6----------
A|-6-9-6---6-9---------------9-6---6-9-6-----------------9-6----
E|--------------------------------------------------------------
                            siente su aliento
e|--------------------------------------------------------------
B|--------------------------------------------------------------
G|-------------------6-------------------------6----------------
D|-------6-----6-7-8---8-7-6-------------6-7-8---8-7-6----------
A|-6-9-6---6-9---------------9-6---6-9-6-----------------9-6----
E|--------------------------------------------------------------
                            y hoy van por ti
e|-------------------------
B|-------------------------
G|---------6---------------
D|---6-7-8---8-6-----------
A|-9-------------9-6-------
E|-------------------------

F#5             B5 C#5 D#5 E5 D#5 C#5
 (hoy van por ti)

Solo: G#5 C#5 F#5 G#5 F#5 G#5 C#5 F#5 B5 C#5 D#5 E5 D#5 C#5
      C#5 B5 A5 C#5 C#5 B5 G#5 A5 C#5 B5 A5 C#5 C#5 A5 G#5

      B5 C#5 D#5 E5 D#5 C#5

  e|--------------------------------------------------------------
  B|--------------------------------------------------------------
  G|--------------------------------------------------------------
  D|---------------------------7-5---8-7-5---8-7-7-5---8-7-5---8-7
  A|-----------------------5-7-----7-------7-8-7-----7-------7-8-7
  E|--------------------------------------------------------------
E5
eeeel teeeendra una oportunidaaaaaaaaaaaad
E5                     C#5 B5 A#5 G#5
eeeeel saaaabra vencer la oscuridaaaaad

e|--------------------------------------------------------------
B|--------------------------------------------------------------
G|-------------------6-------------------------6----------------
D|-------6-----6-7-8---8-7-6-------------6-7-8---8-7-6----------
A|-6-9-6---6-9---------------9-6---6-9-6-----------------9-6----
E|--------------------------------------------------------------
                  tiempos violentos
e|--------------------------------------------------------------
B|--------------------------------------------------------------
G|-------------------6-------------------------6----------------
D|-------6-----6-7-8---8-7-6-------------6-7-8---8-7-6----------
A|-6-9-6---6-9---------------9-6---6-9-6-----------------9-6----
E|--------------------------------------------------------------
                  estan aqui

e|--------------------------------------------------------------
B|--------------------------------------------------------------
G|-------------------6-------------------------6----------------
D|-------6-----6-7-8---8-7-6-------------6-7-8---8-7-6----------
A|-6-9-6---6-9---------------9-6---6-9-6-----------------9-6----
E|--------------------------------------------------------------
                  siente su aliento
e|--------------------------------------------------------------
B|--------------------------------------------------------------
G|-------------------6-------------------------6----------------
D|-------6-----6-7-8---8-7-6-------------6-7-8---8-7-6----------
A|-6-9-6---6-9---------------9-6---6-9-6-----------------9-6----
E|--------------------------------------------------------------
                  y hoy van por ti

e|-------------------------
B|-------------------------
G|---------6---------------
D|---6-7-8---8-6-----------
A|-9-------------9-6-------
E|-------------------------

e|--------------------------------------------------------------
B|--------------------------------------------------------------
G|-------------------6-------------------------6----------------
D|-------6-----6-7-8---8-7-6-------------6-7-8---8-7-6----------
A|-6-9-6---6-9---------------9-6---6-9-6-----------------9-6----
E|--------------------------------------------------------------
                  tiempos violentos
e|--------------------------------------------------------------
B|--------------------------------------------------------------
G|-------------------6-------------------------6----------------
D|-------6-----6-7-8---8-7-6-------------6-7-8---8-7-6----------
A|-6-9-6---6-9---------------9-6---6-9-6-----------------9-6----
E|--------------------------------------------------------------
                  estan aqui

e|--------------------------------------------------------------
B|--------------------------------------------------------------
G|-------------------6-------------------------6----------------
D|-------6-----6-7-8---8-7-6-------------6-7-8---8-7-6----------
A|-6-9-6---6-9---------------9-6---6-9-6-----------------9-6----
E|--------------------------------------------------------------
                  siente su aliento
e|--------------------------------------------------------------
B|--------------------------------------------------------------
G|-------------------6------------------------------------------
D|-------6-----6-7-8---8-7-6-----6-6---------6-6--------6-6-----
A|-6-9-6---6-9---------------9-6-----9-6-9-6----9-6-9-6-----9-6-
E|--------------------------------------------------------------
                  y hoy van por tiiiiiiiiiaaaaaaaaaaaaaah

  DEDICADA PARA LOS HIJOS DEL ROCK!!!!!!!!!!!!!!!

            
            
Suggest correction
Creating personal tab
Creating personal tab
You can edit any tab online and save it as your Personal.

You can edit, replace or remove any tab part or add personal notes – all changes will be seen only by you.

Personal tabs can be accessed anytime from any device, even offline.
Learn more »
Give kudos to tab author, rate the tab!
1 2 3 4 5
comments
print report bad tab
guest
Wanna post a correction for this tab? Suggest correction