Oops, an error
Loading. Please wait.

Michell, Odia La Oscuridad tab

version 2
version 2

Whole song

268 views 1 this week
no commentswrite comment
1 2 3 4 5
3 more votes to show rating
add to favorites
×
Save as Personal and add changes to this tab that will be seen only by you. Learn more ›
×
You can save this tab as Personal to edit and correct it or add notes. All changes will be seen only by you. Learn more »
launch autoscroll
font size
0
reset
how to read this tab
guitar tuner
edit
Autoscroll
slow
fast
+/-
esc
set tempo
stop
HOLA ESTA ES MI SEGUNDA VERSION DE ESTA ROLA, CORREGI LOS ARREGLOS
Y AGREGUÉ EL SOLO, SUERTE CON ESTA ROLA.
SIMBOLOGIA:
" = DEJAR SONAR
B = BEND
H =HAMMER ON
P =PULL OFF
/ = DESLIS
V = VIBRATO

INTRO

g|--------------------6-----------------------------6------------
D|----------6---6-7-8---8-7-6-------------6---6-7-8---8-7-6------
A|6/9-6-9-6---9---------------9-6/9-6-9-6---9---------------9-6/9
E|---------------------------------------------------------------

g|-----------------6-------------------
D|-------6---6-7-8---8-7-6-------------
A|-6-9-6---9---------------9-6/9--------
E|-------------------------------------

e|---------------------------------------------------------------
B|---------------------------------------------------------------
G|-----------------6-------------6-------------------------------
D|-------6---6-7-8---8-7-6---6-8---8-7-6-------------------------
A|-6-9-6---9---------------9-------------9-6---------------------
E|---------------------------------------------------------------


D|-------------------------6-6-6-6-6-6-6-6-
A|-6-6-6-6-6-6-6-6-6-6-6-6-4-4-4-4-4-4-4-4-
E|-4-4-4-4-4-4-4-4-4-4-4-4-----------------

   Michell gritó despertó  en la oscuridad

D|----------------------5-4---7-5-4---5-4---7-5--2-----
A|-4-4-4-4-4-4-4-4-4-4------7-------7-----7------2-----
E|-2-2-2-2-2-2-2-2-2-2---------------------------0-----

   Con el eco de su voz ..

D|-------------------------6-6-6-6-6-6-6-6-
A|-6-6-6-6-6-6-6-6-6-6-6-6-4-4-4-4-4-4-4-4-
E|-4-4-4-4-4-4-4-4-4-4-4-4-----------------

   Siempre temió en   dejarse    convencer

D|---------------------------------------------
A|-4-4-4-4-4-4-4-4-4-4-4-4-4--8-6-7-6-4-2-2-1--
E|-2-2-2-2-2-2-2-2-2-2-2-2-2-------------------

       Por la bruja que él esconde en su placard

D|------------------------------------5-4---7-5-4---5-4---7-5--
A|-2-2-2-2-2-2-2-2-2-2-2-2-2-2-2-2-2------7-------7-----7------
E|-0-0-0-0-0-0-0-0-0-0-0-0-0-0-0-0-0-|     esta parte (x 2)   |

   Y en su hogar esto a nadie le importó

D|---------------------------------------------------------
A|-2-2-2-2-2-2-2-2-2-2-2-2-4-4-4-4-4-6-6-6-6-6-8-8-8-8-8---
E|-0-0-0-0-0-0-0-0-0-0-0-0-2-2-2-2-2-4-4-4-4-4-6-6-6-6-6---

Y él pensó como tomar revaaaaaaaaaaaaaaaaaaaaaaaancha

g|--------------------6-----------------------------6------------
D|----------6---6-7-8---8-7-6-------------6---6-7-8---8-7-6------
A|2/9-6-9-6---9---------------9-6/9-6-9-6---9---------------9-6/9
E|---------------------------------------------------------------

                     Tiempos violentos

g|-----------------6-----------------------------6---------------
D|-------6---6-7-8---8-7-6-------------6---6-7-8---8-6-----------
A|-6-9-6---9---------------9-6/9-6-9-6---9---------9-6-----------
E|---------------------------------------------------------------

                     Están aquííííí

g|--------------------6-----------------------------6------------
D|----------6---6-7-8---8-7-6-------------6---6-7-8---8-7-6------
A|6/9-6-9-6---9---------------9-6/9-6-9-6---9---------------9-6/9
E|---------------------------------------------------------------

                        Siente su aliento

g|-----------------6---------------------
D|-------6---6-7-8---8-7-6---------------
A|-6-9-6---9---------------9-6/9---------
E|---------------------------------------

                     Y hoy van por tii

G|-----------------6-------------6-----------------------------
D|-------6---6-7-8---8-7-6---6-8---8-7-6-----------------------
A|-6-9-6---9---------------9-------------9-6-------------------
E|-------------------------------------------------------------

D|-------------------------6-6-6-6-6-6-6-6-
A|-6-6-6-6-6-6-6-6-6-6-6-6-4-4-4-4-4-4-4-4-
E|-4-4-4-4-4-4-4-4-4-4-4-4-----------------

    Su  soledad  lo  enredó en la confusión

D|----------------------5-4---7-5-4---5-4---7-5--2-----
A|-4-4-4-4-4-4-4-4-4-4------7-------7-----7------2-----
E|-2-2-2-2-2-2-2-2-2-2---------------------------0-----

  Y él no sabe que pensaaaaar

D|---------------------6-6-6-6-6-6-6-6-
A|-6-6-6-6-6-6-6-6-6-6-4-4-4-4-4-4-4-4-
E|-4-4-4-4-4-4-4-4-4-4-----------------

  Hay días que sueños crueles estarán

D|-------------------------------------
A|-4-4-4-4-4-4-4-4-4--8-6-7-6-4-2-2-1--
E|-2-2-2-2-2-2-2-2-2-------------------

   Torturando su vacío corazóóón

D|------------------------------------5-4---7-5-4---5-4---7-5--
A|-2-2-2-2-2-2-2-2-2-2-2-2-2-2-2-2-2------7-------7-----7------
E|-0-0-0-0-0-0-0-0-0-0-0-0-0-0-0-0-0-|     esta parte (x 2)   |

   Y e n c o n t r ó la bruja del placard

D|---------------------------------------------------------
A|-2-2-2-2-2-2-2-2-2-2-2-2-4-4-4-4-4-6-6-6-6-6-8-8-8-8-8---
E|-0-0-0-0-0-0-0-0-0-0-0-0-2-2-2-2-2-4-4-4-4-4-6-6-6-6-6---

   Y  saaalió buscando a los culpaaaaaaaaaaaaaaaaableees

g|--------------------6-----------------------------6------------
D|----------6---6-7-8---8-7-6-------------6---6-7-8---8-7-6------
A|2/9-6-9-6---9---------------9-6/9-6-9-6---9---------------9-6/9
E|---------------------------------------------------------------

                      Tiempos violentos

g|-----------------6-----------------------------6---------------
D|-------6---6-7-8---8-7-6-------------6---6-7-8---8-6-----------
A|-6-9-6---9---------------9-6/9-6-9-6---9---------9-6-----------
E|---------------------------------------------------------------

                     Están aquííííí

g|--------------------6-----------------------------6------------
D|----------6---6-7-8---8-7-6-------------6---6-7-8---8-7-6------
A|6/9-6-9-6---9---------------9-6/9-6-9-6---9---------------9-6/9
E|---------------------------------------------------------------

                      Siente su aliento

g|-----------------6---------------------------------------------
D|-------6---6-7-8---8-7-6-----------6---------------------------
A|-6-9-6---9---------------9-6/9-6-9---9-7-6---------------------
E|---------------------------------------------------------------

                     Y hoy van por ti           Hoy van por ti

D|------4??6??8?----8??6?-----------
A|-4?---2??4??6??2??6??4?-----------
E|-2?------------0?-----------------


SOLO:
                Minuto 2:33

e|-------------------------------------------------------------
B|-------------------------------------------------------------
G|-5/8-88888888888888888---------7-------7-----9v--9-7---------
D|-----------------------6/9-9-6---9-6-9---9-6---------9-7-9-8-
A|-------------------------------------------------------------
E|-------------------------------------------------------------

e|---------------------------------------------------------------
b|---------------------------------------10-12-10-------12-10----
g|--------------------------------12b-12----------12-10-------12b
D|-7h8p7---7h9-----7h9p7---7h9vvv--------------------------------
A|-------9-------9-------9---------------------------------------
E|---------------------------------------------------------------

e|---------------------------------------------------------------
b|---10-12-10----10-12-10----10-12-10----10-12-10----10-12-10-12v
g|12----------12----------12----------12----------12-------------
D|---------------------------------------------------------------
A|---------------------------------------------------------------
E|---------------------------------------------------------------

e|------------------------------
b|-15-13-12-9-11-9-8-6-9v-------
g|------------------------------
D|------------------------------  AQUÍ VIENE LA PARTE GRUESA
A|------------------------------  METANLE FEELING
E|------------------------------
                    Minuto 2:55
e|18-15----------15-18-15----------15-18-15-16-12----------12-16-12
b|------17----17----------17----17----------------14----14---------
g|---------16----------------16----------------------13------------
D|-----------------------------------------------------------------
A|-----------------------------------------------------------------
E|-----------------------------------------------------------------

e|----------12-16-12-18-15----------15-18-15-13-10----------10-13-10-
b|-14----14----------------17----17----------------12----12----------
g|----13----------------------16----------------------11-------------
D|-------------------------------------------------------------------
A|-------------------------------------------------------------------
E|-------------------------------------------------------------------

e|----------10-13-10-17-13----------13-17-13---------13-17-13---
b|-12----12----------------15----15----------15---15------------
g|----11----------------------16----------------16--------------
D|--------------------------------------------------------------
A|--------------------------------------------------------------
E|--------------------------------------------------------------

e|-16-12----------12-16-12----------12-16-12-12-8--------8-12-8-
b|-------14----14----------14----14---------------9----9--------
g|----------13----------------13--------------------10----------
D|--------------------------------------------------------------
A|--------------------------------------------------------------
E|--------------------------------------------------------------

e|--------8-12-8-13-10----------10-13-10----------10-13-10--
b|-9----9--------------12----12----------12----12-----------
g|---10-------------------11----------------11--------------
D|----------------------------------------------------------
A|----------------------------------------------------------
E|----------------------------------------------------------

e|-17-13---------13-17-13----------13-17-13-16-12----------12-16-12-
b|------15----15----------15----15----------------14----14----------
g|---------16----------------16----------------------13-------------
D|------------------------------------------------------------------
A|------------------------------------------------------------------
E|------------------------------------------------------------------

e|----------12-16-12-18-15----------15-18-15----------15-18-15--
b|-14----14----------------17----17----------17----17-----------
g|----13----------------------16----------------16--------------
D|--------------------------------------------------------------
A|--------------------------------------------------------------
E|--------------------------------------------------------------

e|-13-10----------10-13-10----------10-13-10-16-12----------12-16-12-
b|-------12----12----------12----12----------------14----14----------
g|----------11----------------11----------------------13-------------
D|-------------------------------------------------------------------
A|-------------------------------------------------------------------
E|-------------------------------------------------------------------

e|----------12-16-12-12-8--------8-12-8--------8-12-8-
b|-14----14---------------9----9--------9----9--------
g|----13--------------------10------------10----------
D|----------------------------------------------------
A|----------------------------------------------------
E|----------------------------------------------------
            Minuto 3:15
e|-----------------------------------------------------------
b|-10/12-12-10--14-12--10-8--12-10--9-7--11-9--8-6--10-8-----
g|-----------------------------------------------------------
D|-----------------------------------------------------------
A|-----------------------------------------------------------
E|-----------------------------------------------------------

e|-7---7-9-9--7-9-9--7-10v-------
b|-9-9---------------------------
g|-------------------------------
D|-------------------------------
A|-------------------------------
E|-------------------------------

D|-4?-6-?8-----8--6----
A|-2--4--6--2--6--4----
E|----------0----------

  FIN DEL SOLO.......

D|-------------------------5-4---7-5-4---5-4---7-5--
A|-2-2-2-2-2-2-2-2-2-2-2-------7-------7-----7------
E|-0-0-0-0-0-0-0-0-0-0-0-|     esta parte (x 2)   |

    ÉL tendrá una oportunidad

D|---------------------------------------------------------
A|-2-2-2-2-2-2-2-2-2-2-2-2-4-4-4-4-4-6-6-6-6-6-8-8-8-8-8---
E|-0-0-0-0-0-0-0-0-0-0-0-0-2-2-2-2-2-4-4-4-4-4-6-6-6-6-6---

   Él saaaabrá vencer la oscuridaaaaaaaaaaaaaaaaaaaaaaaad

g|--------------------6-----------------------------6------------
D|----------6---6-7-8---8-7-6-------------6---6-7-8---8-7-6------
A|2/9-6-9-6---9---------------9-6/9-6-9-6---9---------------9-6/9
E|---------------------------------------------------------------

                                 Tiempos violentos

g|-----------------6-----------------------------6---------------
D|-------6---6-7-8---8-7-6-------------6---6-7-8---8-7-6---------
A|-6-9-6---9---------------9-6/9-6-9-6---9---------------9-6/9---
E|---------------------------------------------------------------

                        Están aquí

g|-----------------6-----------------------------6----------------
D|-------6---6-7-8---8-7-6-------------6---6-7-8---8-7-6----------
A|-6-9-6---9---------------9-6/9-6-9-6---9---------------9-6/9----
E|----------------------------------------------------------------

                               Siente su aliento

g|-----------------6-----------------------------6---------------
D|-------6---6-7-8---8-7-6-------------6---6-7-8---8-7-6---------
A|-6-9-6---9---------------9-6/9-6-9-6---9---------------9-6/9---
E|---------------------------------------------------------------

                        Y hoy van por tí

g|-----------------6-----------------------------6---------------
D|-------6---6-7-8---8-7-6-------------6---6-7-8---8-7-6---------
A|-6-9-6---9---------------9-6/9-6-9-6---9---------------9-6/9---
E|---------------------------------------------------------------

                        Tiempos violentos

g|-----------------6-----------------------------6---------------
D|-------6---6-7-8---8-7-6-------------6---6-7-8---8-7-6---------
A|-6-9-6---9---------------9-6/9-6-9-6---9---------------9-6/9---
E|---------------------------------------------------------------

                         Están aquí

g|-----------------6-----------------------------6---------------
D|-------6---6-7-8---8-7-6-------------6---6-7-8---8-7-6---------
A|-6-9-6---9---------------9-6/9-6-9-6---9---------------9-6/9---
E|---------------------------------------------------------------

                        Siente su aliento

g|-------------------------------
D|-------6---6-7-8---8-7-6-------
A|-6-9-6---9---------------9-6/9-
E|-------------------------------

                      Y hoy van por tiiiiiiiiiii

D|-----6------------6------------6--------------------
A|-6-9---9-7-6--6-9---9-7-6--6-9---9-7-6--------------
E|----------------------------------------------------


purorock_pablo@

            
            
Suggest correction
Creating personal tab
Creating personal tab
You can edit any tab online and save it as your Personal.

You can edit, replace or remove any tab part or add personal notes – all changes will be seen only by you.

Personal tabs can be accessed anytime from any device, even offline.
Learn more »
Give kudos to tab author, rate the tab!
1 2 3 4 5
comments
print report bad tab
guest
Wanna post a correction for this tab? Suggest correction