Oops, an error
Loading. Please wait.

Mujer Amante Tab

version 1
version 1

Acoustic

Whole song

Interactive

52,577 views 27 this week
1 commentread comment
1 2 3 4 5
excellent!
x 5
add to favorites
launch autoscroll
font size
0
reset
how to read this tab
guitar tuner
Autoscroll
slow
fast
+/-
esc
set tempo
stop
Help us to improve Ultimate-Guitar.com Take our survey!
×
Contributor
Group: Rata Blanca 
Song: Mujer Amante (Version Acústica)
Tabbled by ChrisGarMed
Whole Song (Guitar, violin, lyrics & chords)


Intro
e|-0--0---0---0---0---0---0---0-----0-1-4-1-0---1-0-------0----|
b|-1----0---0---0---0---0---0-----------------3-----3-1-0---3--|
g|-2-----------------------------2-----------------------------|
D|-2-----------------------------2-----------------------------|
A|-0-----------------------------0-----------------------------|
E|-0-----------------------------------------------------------|


e|-----0--------------------------000--------0-1---------------|
b|-1-0---3-1-0-3-1-0---1-0--------111----1-3-----5\3-3\1-0-----|
g|-------------------2-----2-0-3--222--------------------------|
D|--------------------------------222--------------------------|
A|--------------------------------000--------------------------|
E|--------------------------------000--------------------------|


e|-------------------------------------------------------------|
b|-0-1-2-1-0-1-------------------------------------------------|
g|-----------4\2-------------0---------------------------------|
D|----------------5p3-2--2-3---3-2-0---------------------------|
A|------------------------------------3-2-2/5--------0---------|
E|-------------------------------------------------------------|

0:27 Part
  -0-                 -3-            -0-
  -1-                 -3-            -1-
  -2-                 -0-            -2-
  -2-                 -0-            -2-
  -0-                 -2-            -0-
  -0-                 -3-            -0-
  Am                   G             Am 
e|------------------8-10---------------------------------------|
b|---10-10-10-10-12------8-8-8-10-12-12-10-10------------------|
g|-9-----------------------------------------------------------|
D|-------------------------------------------------------------|
A|-------------------------------------------------------------|
E|-------------------------------------------------------------|
  (violin)
  
  Am
e|---5-7-8-7-5---7-5--------|
b|-8-----------8-----8-6-5--|
g|--------------------------|
D|--------------------------|
 (Guitar after violin)
   
(2 chords with ~~ are the same chord)
    Am                  G                ~Am~
e|------------------8-10---------------------------------------|
b|---10-10-10-10-12------8-8-8-11/13-12-10---------------------|
g|-9-----------------------------------------------------------|
D|-------------------------------------------------------------|
A|-------------------------------------------------------------|
E|-------------------------------------------------------------|
  (violín)




  ~Am~                       Am
e|-----0-1-0-3-1-0---1-0-----0----------------|
b|-1-3-------------3-----3-1---3-1-0-3-1-0-1--|
g|--------------------------------------------|
D|--------------------------------------------|
  (Guitar again)

  -0-                -3-      -0-       -5-
  -1-                -3-      -1-       -5-
  -0-                -0-      -2-       -5-
  -2-                -0-      -2-       -7-
  -3-                -2-      -0-       -7-
  -0-                -3-      -0-       -5-
   C                  G       Am         A5
e|----12-12-13-15-12----12--------------------------|
b|-15----------------15----15-13-12-13-15-15-13-13--|
g|--------------------------------------------------|
D|--------------------------------------------------|
A|--------------------------------------------------|
E|--------------------------------------------------|
  (Violin)

           A5
e|-12-10-8---------7-8-7p5-5-h5---|
b|-12-10-8------------------------|
g|--------------------------------|
D|--------------------------------|
A|--------------------------------|
E|--------------------------------|
 (Guitar)
 -0-                -3-       -0-       -1-
 -1-                -3-       -1-       -1-
 -0-                -0-       -2-       -2-
 -2-                -0-       -2-       -3-
 -3-                -2-       -0-       -3-
 -0-                -3-       -0-       -1-
  C                  G        Am         F
e|----12-12-13-15-12----12--------------------|
b|-15----------------15----15-12-12-10-8-10---|
g|--------------------------------------------|
D|--------------------------------------------|
A|--------------------------------------------|
E|--------------------------------------------|
  (Violin)

e|----------------|
b|-----0-1-0-1-3--|
g|-0-2------------|
D|----------------|
A|----------------|
E|----------------|
  (Guitar)
 
(Asus)
(e-0-)
(b-3-)
(g-2-)
(D-2-)
(A-0-)
(E-0-)
Verse
Am               Am               Asus                 Asus
Siento el calor, de toda tu piel, en mi cuerpo otra vez
Am                Dm     Am     Asus            Asus    
Estrella fugaz, enciende mi sed misteriosa mujer
Am          Am       Asus           Asus
e|---5-5-5—--5—-5-----5—-5—-5---5—-5—-5—-5--5--5--|
b|---5-5-5---5--5-----5--5--5---5--5--5--5--5--5--|
Con tu amor sensual, cuando me das
Am                Dm   Asus         Asus
e|---------7—-7-—10-10----------13-12-13---12---|
b|---------7--7--10-10--------------------------|
Haz que mi sueño, sea, una verdad
Am          Am       Asus           Asus
e|---5-5-5—--5—-5-----5—-5—-5---5—-5—-5—-5--5--5--|
b|---5-5-5---5--5-----5--5--5---5--5--5--5--5--5--|
Dame tu alma hoy, haz el ritual
Am         Am            Asus         Asus
e|---------7—-7--—10-10—-4------------2-2/4---|
b|---------7--7---10-10--4------------2-2/4---|
Llévame al mundo, donde, pueda soñar

Chorus
Am     Asus                  Dm          Am
Uuuuu, debo saber si en verdad, en algún lado estas
Am            Asus     Dm Am           Am
Voy a buscar, una señal  ,  una canción  A|-0-2-3-2-0-|
Am     Asus                  Dm          Am
Uuuuu, debo saber si en verdad, en algún lado estas
Am            Asus         Dm Am        C  Am Asus
Solo el amor, que tu me das  ,  me ayudara-a -a

2:23 Part
  Am                   G             Am 
e|------------------8-10---------------------------------------|
b|---10-10-10-10-12------8-8-8-10-12-12-10-10------------------|
g|-9-----------------------------------------------------------|
D|-------------------------------------------------------------|
A|-------------------------------------------------------------|
E|-------------------------------------------------------------|
  (Violin)

  Am
e|--------------------------|
b|---0-1-3-1-3-3/5----------|
g|-2------------------------|
D|--------------------------|
A|--------------------------|
E|--------------------------|
 (Guitar)

    Am                  G                ~Am~
e|------------------8-10---------------------------------------|
b|---10-10-10-10-12------8-8-8-11/13-12-10---------------------|
g|-9-----------------------------------------------------------|
D|-------------------------------------------------------------|
A|-------------------------------------------------------------|
E|-------------------------------------------------------------|
  (violín)


 ~Am~              Am
e|----7-8-10-8-10-10/12-----------|
b|-10-----------------------------|
g|--------------------------------|
D|--------------------------------|
A|--------------------------------|
 (Guitar)


   C                  G       Am         A5
e|----12-12-13-15-12----12--------------------------|
b|-15----------------15----15-13-12-13-15-15-13-13--|
g|--------------------------------------------------|
D|--------------------------------------------------|
A|--------------------------------------------------|
E|--------------------------------------------------|
  (Violin)

          A5
e|----------------------|
b|-6-8-8\5--------------|
g|----------5-7-7\5-----|
D|----------------------|
A|----------------------|
E|----------------------|
 (Guitar)

  C                  G        Am         F
e|----12-12-13-15-12----12--------------------|
b|-15----------------15----15-12-12-10-8-10---|
g|--------------------------------------------|
D|--------------------------------------------|
A|--------------------------------------------|
E|--------------------------------------------|
  (Violin)

Verse 2
Am           Am                    Asus          Asus
Al amanecer, tu imagen se va misteriosa mujer
Am            Dm     Am         Asus           Asus
Dejaste en mi lujuria total, hermosa y sensual
Am              Am          Asus           Asus
e|---5-----5-----5—--5—----5-----—5-----5------5------5------|
b|-----5-5---5-5---5---5-5---5-5----5-5---5-5----5-3----5-5--|
Corazón sin dios dame un lugar
Am            Dm     Asus         Asus
e|-----7—-7-—-10-10--12-12---13—-13-12-10-12---|
b|-----7--7---10-10--12------------------------|
En ese mundo, tibio, casi real
Am              Am          Asus           Asus
e|---5-----5-----5—--5—----5-----—5-----5------5------7------|
b|-----5-5---5-5---5---5-5---5-5----5-5---5-5----5-5----5-5--|
Debe-ré      buscar,  una señal
Am                Dm   Asus           Asus
e|-----7—----7-----—10-------10-------------------2-2/4-4--4--|
b|-----7-7-7-7-7-7--10-10-10-10-10-10-------------2—2/4-------|
Y en aquel   ca-   -mi-     -no       por el que vas



Chorus
Am     Asus                  Dm          Am
Uuuuu, debo saber si en verdad, en algún lado estas
Am            Asus     Dm Am           Am
Voy a buscar, una señal  ,  una canción  A|-0-2-3-2-0-|
Am     Asus                  Dm          Am
Uuuuu, debo saber si en verdad, en algún lado estas
Am            Asus         Dm Am        C  Am Asus
Solo el amor, que tu me das  ,  me ayudara-a -a

Solo

e|---5-7-8---8-7-5h7----------------------------------------|
b|-5--------------------6-8-5h6p5-3h5----------------3/5----|
g|-------------------------------------------------4-----2--|
D|---------------------------------------------0-2----------|
A|---------------------------------------0-2-3--------------|
E|----------------------------------------------------------|

e|---------------------------------------------------------------|
b|---0-1-3p1-0-------0---0-1-0-------0---------------------------|
g|-2-----------4p2p0---2-------4-2-0---4-2-0-2-0-----------------|
D|-----------------------------------------------3-4-------------|
A|--------------------------------------------------------3-2-0--|
E|---------------------------------------------------------------|

   Dm         Am            G               
e|----13-17------8----10-12-13-12-10-12-10-8-10-8-7----8-----|
b|-15---------10---12-------------------------------10-------|
g|-----------------------------------------------------------|
D|-----------------------------------------------------------|
A|-----------------------------------------------------------|
E|-----------------------------------------------------------|

     Am                 Dm                  Am
e|----------------------9-------9-------9------------|
b|-12-10-12\10-8-7-8------12-12---12-12---12---------|
g|------------------------12------12-----------------|
D|---------------------------------------------------|
A|---------------------------------------------------|
E|---------------------------------------------------|

                                    G   G   G   G   
e|-8-7----8-7----7-10-7-10-12-10-10/15--15--------|
b|-----10-----10----------------------------------|
g|------------------------------------------------|
D|------------------------------------------------|
A|------------------------------------------------|
E|------------------------------------------------|

   G            A5b  A5b A5b    E
e|-9--7-9--3----8-7--5-4-------------------------|
b|-11-9-11-5---------7---------------------------|
g|-----------------------------------------------|
D|-----------------------------------------------|
A|------------------------------7-9-10-10/11-----|
E|-----------------------------------------------|




Verse 3
Am              Am                 Asus     Asus    
Tu presencia marco en mi vida el amor, lo se
G           A5                    Am     Am
                                      e|-12—-10--|
Es difícil pensar en vivir ya sin vos b|-12------|
Am              Am          Asus           Asus
e|-5-----5-----5—--5—----5-----—--5-----5------7-8—7--5--|
b|---5-5---5-5---5---5-5---5-5------5-5---5-5------------|
Co-ra-  -zón   sin dios, dame un lugar  
Am                Dm   Asus           Asus
e|-----7—-7---10-12---------------2-2/4-4--4--|
b|-----7--7---10----10-8----------2—2/4-------|
En ese mundo, tibio,     casi real

Chorus
Am     Asus                  Dm          Am
Uuuuu, debo saber si en verdad, en algún lado estas
Am            Asus     Dm Am           Am
Voy a buscar, una señal  ,  una canción  A|-0-2-3-2-0-|
Am     Asus                  Dm          Am
Uuuuu, debo saber si en verdad, en algún lado estas
Am            Asus         Dm Am        Am
Solo el amor, que tu me das  ,  me ayudara

Outro
Am                   G             Am 
e|------------------8-10---------------------------------------|
b|---10-10-10-10-12------8-8-8-10-12-12-10-10------------------|
g|-9-----------------------------------------------------------|
D|-------------------------------------------------------------|
A|-------------------------------------------------------------|
E|-------------------------------------------------------------|
  (Violin)

        Am
e|---------------------------|
b|---------------------------|
g|-----------0---------------|
D|-------0-2---3-2-0-3-2-----|
A|-0-2-3---------------------|
E|---------------------------|
 (Guitar)

    Am                  G                Am              Am
e|------------------8-10---------------------------------------|
b|---10-10-10-10-12------8-8-8-11/13-12-10-------no no no no-o-|
g|-9-----------------------------------------------------------|
D|-------------------------------------------------------------|
A|-------------------------------------------------------------|
E|-------------------------------------------------------------|
  (violín)

   C                  G       Am         A5
e|----12-12-13-15-12----12--------------------------|
b|-15----------------15----15-13-12-13-15-15-13-13--|
g|--------------------------------------------------|
D|--------------------------------------------------|
A|--------------------------------------------------|
E|--------------------------------------------------|
  (Violin)
   A5
e|---5-7-8-7-5---7-5--------|
b|-8-----------8-----8-6-5--|
g|--------------------------|
D|--------------------------|
 (Guitar)

  C                  G        Am         F       F
e|----12-12-13-15-12----12--------------------|
b|-15----------------15----15-12-12-10-8-10---|
g|--------------------------------------------|
D|--------------------------------------------|
A|--------------------------------------------|
E|--------------------------------------------|
  (Violin)


e|-----------1-----------7-8-7-----------------------------|
b|---------1--------8-10-------10-8-10-8-7---8-7-----------|
g|-------2--------9------------------------9-----9-7-9-----|
D|-----3--------7------------------------------------------|
A|---3--------------------------------------------------0--|
E|-1-------------------------------------------------------|
 (Guitar)
comments
print report bad tab
1 comment total.
0 reply
stefan1988 3,378 wrote on February 13 2008, 09:22 pm

esta chiva XD

I want to post or [tab]
guest
You may want to rate the tab now too:
select rating
Please do not post tabs as comments. Select "correction" instead!