Oops, an error
Loading. Please wait.

Quizas Empiece Otra Ves tab

89 views 1 this week
no commentswrite comment
1 2 3 4 5
3 more votes to show rating
add to favorites
×
Save as Personal and add changes to this tab that will be seen only by you. Learn more ›
×
You can save this tab as Personal to edit and correct it or add notes. All changes will be seen only by you. Learn more »
launch autoscroll
font size
0
reset
how to read this tab
guitar tuner
edit
Autoscroll
slow
fast
+/-
esc
set tempo
stop
INTRO:

E |------------------------------------------------------------------
B |------------------------------------------------------------------
G |--9----6-------------4---6--------------------------------------        X 
2
D |--9----6-------------4---6--------------------------------------
A |--7----4-------------2---4--------------------------------------
E |------------------------------------------------------------------

E |---------------------------------------------------------------
B |---------------------------------------------------------------
G |---6-------9-------11------14-------------------------------
D |---6-------9-------11------14-------------------------------
A |---4-------7-------9-------12-------------------------------
E |---------------------------------------------------------------


RIFF 1:

E |--------------------------------------------------------------------------------------
B |--------------------------------------------------------------------------------------
G |---10-------8--------11-------8---------10----------------------------------------         X 4
D |---10-------8--------11-------8---------10----------------------------------------
A |---8--------6---------9--------6---------8------------------------------------------
E |--------0--------0---------0--------0-----------0-0--0-0--0-0--0-0--0-0--0-0--0


Y Termina con :

E |------------------------------------
B |-------2---------------------------
G |-------2---------------------------
D |-------2--------------------------
A |-------0--------------------------
E |---0------------------------------


RIFF 2:

E |-----------------------------------------
B |-----------------------------------------
G |---10--11--10--11---8--------------
D |---10--11--10--11---8--------------
A |----8---9----8---9----6---------------
E |-----------------------------------------


RIFF 3:

E |--------------------------------------2------------------------
B |-------------------2-----------------3------------------------
G |-------------------2-----------------2------------------------
D |-------------------2-------------------------------------------
A |-------------------0-------------------------------------------
E |-----3p0--3p0-------3p0--3p0-----------------------------


   RIFF 2                                  RIFF 1
   Plantate vence tus penas


   hoy puedes ver fuera de vos    RIFF1

G                                RIFF 1
   Las realidades no son... oh no...

G                   D
   Las que te quieren vender

C                           A#
   Diarios y television...

A#              D#
   Nunca diran la verdad


   RIFF 2                                         RIFF 1
   Muevete que el tiempo apremia

                                                      RIFF 1
   Estas en manos de algun rufian

G                     D          RIFF1
   Vos no sos parte de el... oh no

G              D
   Solo te quiere explotar

C                         A#
  Puedes tu vida cambiar

A#                 D#                          RIFF 3
  Escucha la fuerza de este rock n` roll

                RIFF 3
  Rock n`Roll

                RIFF 3
  Rock n`Roll

                RIFF 3
  Rock n`Roll


NOTA: Aca se mantiene toda esta parte con este Riff hasta que lleagn los 
acordes que hacen de intro del solo.


Acordes de intro del solo:


D#    |     C#      |       A#     |      D#     |


SOLO :


E |--10--13b-------13b--13--12--10----12--10--8--7-----------------------------18b---18b-18--17--15-----17--15--14---------
B |-----------------------------------------------------------10--8--7--8---8s10---------------------------------------------------------
G |------------------------------------------------------------------------------------------------------------------------------------------
D |------------------------------------------------------------------------------------------------------------------------------------------
A |------------------------------------------------------------------------------------------------------------------------------------------
E |------------------------------------------------------------------------------------------------------------------------------------------

De aca en mas no se si esta bien, y aparte lo saque del solo de ' Rata 
Blanca en vivo' En Bs. As.


E |--15----15---15-----15-15-15-17-17-17-18-18-18-17-17-17-15----15--------------------------------------------------------------------------------------
B |--18b--18b--18b-----------------------------------------------------------18b-------------------------------------------------------------------------------------
G |-----------------------------------------------------------------------------------15---15*---------------15-17-18--18b---18p17p15----18p17p15-----------
D |-----------------------------------------------------------------------------------17b---------14-16-18----------------------------------17-------------17--17b-
A |------------------------------------------------------------------------------------------------------------------------------------------------------------------------
E |------------------------------------------------------------------------------------------------------------------------------------------------------------------------


E |-----------------------------------------------------------------------------------------------------------------------------------------------------------15-17-18----
B |------------------------------------------------------------------------------------------------------------------------------------------------15-17-18---------------
G |---17-15-14-15-17*-14----------------------------------------------------------------------------------------------------------14-15-17--------------------------
D |------------------------------17-14-15-17-15-14--17-14-15-17-15-14--17-14-15-17-15-14--17-14-15-17-15-14------------------------------------------
A |--------------------------------------------------------------------------------------------------------------------------------------------------------------------------
E |--------------------------------------------------------------------------------------------------------------------------------------------------------------------------


E |--18p17p15-18p17p15------------------------------------------------------------------------------17p14-17p14----17p14-17p14----17p14-17p14----17p14-17p14-
B |---------------------------18p17p15-----15-15-15-17-17-17-18-18-18-17-17-17-15-------15-----------------15-----------------15-----------------15-----------------
G |---------------------------------------17b-----------------------------------------------------------------------------------------------------------------------
D |-----------------------------------------------------------------------------------------------------------------------------------------------------------------
A |-----------------------------------------------------------------------------------------------------------------------------------------------------------------
E |-----------------------------------------------------------------------------------------------------------------------------------------------------------------


E |------18p15-18p15---18p15-18p15---18p15-18p15---18p15-18p15------20p17-20p17---20p17-20p17----20p17-20p17----20p17-20p17------
B |---17----------------17----------------17----------------17-------------------18----------------18-----------------18-----------------18----------------------
G |----------------------------------------------------------------------------------------------------------------------------------------------------------------------
D |----------------------------------------------------------------------------------------------------------------------------------------------------------------------
A |----------------------------------------------------------------------------------------------------------------------------------------------------------------------
E |-----------------------------------------------------------------------------------------------------------------------------------------------------------------------


E |----18-20-22-22b-22b-22b-22b------19---17-20-------15--13--12--10--------13-12-10-------------------------10----------
B |-18--------------------------------------22b--20b---------18b-16b-15b-13b------------------13-12-10----------13b-------------
G |----------------------------------------------------------------------------------------------------------------12-10-9----------------
D |------------------------------------------------------------------------------------------------------------------------------------------
A |------------------------------------------------------------------------------------------------------------------------------------------
E |-------------------------------------------------------------------------------------------------------------------------------------------


E |--10p8p7--10p8p7---10p8p7---10p8p7---10p8p7---10p8p7---10p8p7---10p8p7---10p8p7-----10-8-7----------------------
B |-----------8----------8-----------8----------8-----------8----------8-----------8-----------8---------8------------10-8-6-5-----------
G |---------------------------------------------------------------------------------------------------------------------------------------------
D |---------------------------------------------------------------------------------------------------------------------------------------------
A |---------------------------------------------------------------------------------------------------------------------------------------------
E |---------------------------------------------------------------------------------------------------------------------------------------------


BASE DURANTE EL SOLO DE TECLADOS:


E |---------------------------------------------------------------------------------
B |---------------------------------------------------------------------------------
G |---------------------------------------------------------------------------------
D |-----5&-----5-----5&-----5-----5&-----5-----5&------5-----3------------   
               X 4
A |-----5&-----5-----5&-----5-----5&-----5-----5&------5-----3------------
E |-----3&-----3-----3&-----3-----3&-----3-----3&------3-----3-------------


  RIFF 2                               RIFF 1
  Puedes ser lo que tu quieras

                                         RIFF 1
  La sociedad puedes burlar

G             D              RIFF 1
  Solo te debes cuidar

G                   D
  De los que quieren matar

C                           A#
  Tus sueños y tu ideal

A#                 D#                              RIFF 3
  Escucha la fuerza de este Rock and Roll

                   RIFF 3
  Rock and Roll

                   RIFF 3
  Rock and Roll

                   RIFF 3
  Rock and Roll


  Y TERMINA ASI


E |------------------------------------------------------------------------------------------------------
B |------------------------------------------------------------------------------------------------------
G |-10---8----10----8----13------12----6-------------2----5--------------------------------2------ 
     X 4
D |-10---8----10----8----13------12----6-------------2----5--------------------------------2------
A |--8----6----8-----6----11------10----4-------------0----3------5--7--8--10--8--5------0------
E |-------------------------------------------------------------------------------------------------------


EXPLICACION DE TABLATURA:

*: Armonicos

p: Pull

b: Bend up

&:Palm mute (con mano izquierda)

            
            
Suggest correction
Creating personal tab
Creating personal tab
You can edit any tab online and save it as your Personal.

You can edit, replace or remove any tab part or add personal notes – all changes will be seen only by you.

Personal tabs can be accessed anytime from any device, even offline.
Learn more »
Give kudos to tab author, rate the tab!
1 2 3 4 5
comments
print report bad tab
guest
Wanna post a correction for this tab? Suggest correction