Oops, an error
Loading. Please wait.

Rompe El Hechizo Tab

3,063 views 6 this week
1 commentread comment
1 2 3 4 5
please rate
add to favorites
launch autoscroll
font size
0
reset
how to read this tab
guitar tuner
Tab Pro tools
  • play this tab
  • loop segment
  • change instrument
  • show fretboard
  • metronome
×
Best way to learn
"Rompe El Hechizo"
Autoscroll
slow
fast
+/-
esc
set tempo
stop
Afinacion standard EADGBE

Intro
E|-----------------------------------------------------|
B|-----------------------------------------------------|
G|------------------------------------------5-7-8-7-5--|Repite 4 veces
D|------------------------------------------5-7-8-7-5--|
A|-0-0-0-0-0-0-0-0-0-0-0-0-0-0-0-0-0-0-0-0-------------|
E|-----------------------------------------------------|

A
Voy a contarte una historia real
G                A
solo dire la verdad,
A
brujas y brujos a tu lado estan
G            F        A   C C#
son los que hacen el mal.
D               C D               A
Yo los vi cuando  atacaron mi hogar,

E|------------------------|
B|------------------------|
G|--5-7-8-7-5---5-7-8-7-5-|
D|--5-7-8-7-5---5-7-8-7-5-|
A|------------------------|
E|------------------------|

D               C D                   F        G
con hechizos fue    que quisieron mi ser aplastar.

E|---------|
B|---------|
G|--9-7-5--|
D|--9-7-5--|
A|---------|
E|---------|

INTRO

No tuve dudas, tampoco temor,
fue eso lo que me salvó.
Todas mis fuerzas usé contra el ser
que quiso mi destrucción.

Y hoy los puedo ver
arrastrando su mal.
Y hoy soy libre al fin
del hechizo y ya puedo gritar.

A
¡Libre... libre!
F           C           D C B
Libre por siempre seré,
A
seres malignos no van a apagar
F            C B
mi luz interior.
A
¡Libre... libre!
F           C             D C B
Libre por siempre con vos,
A
viles demonios ya pueden morir,
F            E
en nombre de Dios.

SOLO
     h
E|-------------10-7---7-13-10----10-14-11----11-17-14----14--21b-(23)---|
B|--10b-------------9---------12----------13----------16----------------|
G|--------/9~-----------------------------------------------------------|
D|----------------------------------------------------------------------|
A|----------------------------------------------------------------------|
E|----------------------------------------------------------------------|

E|-/14-14-14-14-/14-14-14-14-17-14-14-14-19-14-14-17-14-14-19-19b-(20)--|
B|----------------------------------------------------------------------|
G|----------------------------------------------------------------------|
D|----------------------------------------------------------------------|
A|----------------------------------------------------------------------|
E|----------------------------------------------------------------------|

E|-17-14-14-20-14-14-17-14-14-20-14-14---------------------|
B|-------------------------------------17br-(19)---15---14-|
G|---------------------------------------------------------|
D|---------------------------------------------------------|
A|---------------------------------------------------------|
E|---------------------------------------------------------|

Esta parte es toda ligada
                                                    x2
E|--------------------------------------------------|
B|-058-058-058-058-047-047-047-047-058-0710-058-058-|
G|--------------------------------------------------|
D|--------------------------------------------------|
A|--------------------------------------------------|
E|--------------------------------------------------|

Aca es con tapping

    t      t      t      t      t      t      t      t      t      t       t 
      t
E|-12-8-5-12-8-5-12-8-5-12-8-5-12-7-4-12-7-4-12-7-4-12-7-4-12-8-5-12-10-7-12-8-5-12-8-5---|
B|----------------------------------------------------------------------------------------|
G|----------------------------------------------------------------------------------------|
D|----------------------------------------------------------------------------------------|
A|----------------------------------------------------------------------------------------|
E|----------------------------------------------------------------------------------------|

    t      t      t      t      t      t      t      t
E|---------------------------------------------------------|
B|-12-8-5-12-8-5-12-8-5-12-8-5-13-8-5-13-8-5-13-8-5-13-8-5-|
G|---------------------------------------------------------|
D|---------------------------------------------------------|
A|---------------------------------------------------------|
E|---------------------------------------------------------|

    t      t      t      t      t      t      t      t      t
E|-------------------------------------------------------------|
B|-10-7-4-10-7-4-10-7-4-10-7-4-12-7-4-12-7-4-12-7-4-12-7-4-12--|
G|-------------------------------------------------------------|
D|-------------------------------------------------------------|
A|-------------------------------------------------------------|
E|-------------------------------------------------------------|

Esta parte es mas lenta

E|--------------------------------------------------8-10-8----------7-8-7---------|
B|-8-10-8-7-8-7---7---7-8-7-8-10-8/10-12-10/12~~-----------10-12-10-------8-10-8--|
G|--------------9---9-------------------------------------------------------------|
D|--------------------------------------------------------------------------------|
A|--------------------------------------------------------------------------------|
E|--------------------------------------------------------------------------------|

E|-5-7-5--------------------------------------------------------------------------|
B|-------7-8-7-8-10-8-8-10-8---7-----7---------------------7---7-8---8-10---10----|
G|---------------------------9---9-9---9-9---9-9---9-8---8---------9------7-------|
D|-----------------------------------------9-----9-----9-----9--------------------|
A|--------------------------------------------------------------------------------|
E|--------------------------------------------------------------------------------|

E|-7-8-7-10-8-7-5~-(578-578-578-578-578-578)-8-----------------------------------------------|
B|---------------------------------------------12-10-8~-(81012-81012-81012-81012-81012-81012)|
G|-------------------------------------------------------------------------------------------|
D|-------------------------------------------------------------------------------------------|
A|-------------------------------------------------------------------------------------------|
E|-------------------------------------------------------------------------------------------|

E|----------------------------------------------------------------------|
B|-12-10-8-7~-(7810-7810-7810-7810-7810-7810)-10-8-7-5~~---7~~----------|
G|----------------------------------------------------------------------|
D|----------------------------------------------------------------------|
A|----------------------------------------------------------------------|
E|----------------------------------------------------------------------|

E|-----------------------------7-8-7-10-8-7-5-7-5-8-7-5-----------------------------|
B|---------------8---8-10---10--------------------------8-10-8-12-10-8-7-8-7-10-8-7-|
G|-9---9-11---11----------7---------------------------------------------------------|
D|---9------9------9----------------------------------------------------------------|
A|----------------------------------------------------------------------------------|
E|----------------------------------------------------------------------------------|

E|-----------------------------------------------------------------|
B|---7-----7-------------------------------------------------------|
G|-9---9-9---9-9---9-9---9-8---8-8---8-9---9-8---8-----------------|
D|---------------9-----9-----9-----9-----9-----9-------------------|
A|-----------------------------------------------------------------|
E|--------------------------------------------------0~~-------4\---|

INTRO

Debes saber que tu tienes poder
sobre las fuerzas del mal.
Debes luchar, tú les puedes ganar,
lucha por tu libertad.

Tomaremos hoy
el poder de la luz
y que nunca más
ningún ser muera crucificado.

¡Libre... libre!
Libre por siempre seré,
seres malignos no van a apagar
mi luz interior.
¡Libre... libre!
Libre por siempre con vos,
viles demonios ya pueden morir,
en nombre de Dios.

E|------------------------|
B|------------------------|
G|--5-7-8-7-5---5-7-8-7-5-|
D|--5-7-8-7-5---5-7-8-7-5-|
A|------------------------|
E|------------------------|

FINAL

Parte de bajo

G|--------------------------------------------------|
D|--------------------------------------------------|
A|-0--0--0--3--0-3-5-7-10-7-10-12-0--0--0-----------|
E|--------------------------------------------------|
comments
We did not receive enough feedback on this tab! Please rate:
print report bad tab
1 2 3 4 5
1 comment total.
0 reply
iaramilena wrote on May 18 2014, 11:29 pm

gracias por el aporte

I want to post or [tab]
guest
You may want to rate the tab now too:
select rating
Please do not post tabs as comments. Select "correction" instead!