Oops, an error
Loading. Please wait.

Sin Tu Amor Nada Existe tab

2,446 views 1 this week
no commentswrite comment
1 2 3 4 5
3 more votes to show rating
add to favorites
×
Save as Personal and add changes to this tab that will be seen only by you. Learn more ›
×
You can save this tab as Personal to edit and correct it or add notes. All changes will be seen only by you. Learn more »
launch autoscroll
font size
0
reset
how to read this tab
guitar tuner
edit
Autoscroll
slow
fast
+/-
esc
set tempo
stop
SIN TU AMOR NADA EXISTE
Intro:   F#m  E5  F#m  A5  F#m      F#m  A5  F#m  C5  B5  A5  B5  B5  A5  E5
           F#m  E5  F#m  A5  F#m      F#m  A5  F#m  C5  B5  A5  B5

           F#m                                           E5      
e--------8bbbbb7---7-5-4-5-4-----7-5-4-5-4-------------------|
b------7------------------------7---------------7-5-4--------|
g--------------------------------------------------------6---|

Verso1:
 F#m                                                             E5 
Vos me convenciste ensenandome que el amor,
es historia triste si no estas no;
Solo vos lo conseguiste demostrandome como es dar,
ya lo se  todo lo hiciste me ensenaste  que es amar  E-0-2-4-3-

Coro1:
 F#m  B5 A5  F#m B5 A5        
 Te  entrego    mi     vida 

F#m      A5 F#m C5 B5 A5 B5
Se   que la    cuidaras 

F#m  B5  A5  F#m B5 A5
Si      mi  alma  perdida

F#m      A5 F#m C5 B5 A5 B5sldC#  
tu           corazon         buscaraa
  
 F#m                                                  E5   
No  no nesecito otras cosas para vivir  
se que lejos tuyo no resisto  no 
Si  mi dios es tu perfume que me abrasa y me da valor
vete lejos muy lejos mucho no me muero por este amor [se repite el punteo]

Se repite el coro1

Coro2: [Se toca igual que la introduccion]
Sin tu amor nada existe
sin tu amor nada es igual  [dos veses]

Puente:
C#   B5 C# D5                               C#  B5 C#D5                                  
                          Solo tu boca mujer                                              

C#  B5 C# D5
             podra saciar esta sed    que hoy me produce tu amor


Solo1: 
e--------------------------------------------------12--------12-----------------------------------
b----------------------------------------------14-----15-14---14-------------------14sld16sld14---
g---------------------------------------------------------------------12-------12-----------------
d--7-6------7-6---------7-9-10--9-7-9-------------------------------------------------------------
a-------7-4------7-9--9---------------------------------------------------------------------------
E-------------------------------------------------------------------------------------------------

e-------------------------------------------------------------------------------------------------
b--------12sld14sld12---------10sld12sld10-------12-14-15---14p12p14------------------------------
g--12--------------------12---------------------12------------------------------------------------
d-------------------------------------------------------------------------------------------------
a-------------------------------------------------------------------------------------------------
E-------------------------------------------------------------------------------------------------

e-----14-16-17-16---17-16-14p16p14-----15-12----12------------------------------------------------
b-15------------------------------------------------14-----15-14-12-------------------------------
g-------------------------------------------------------------------------15-14-12----------------
d-------------------------------------------------------------------------------------------------
a-------------------------------------------------------------------------------------------------
E-------------------------------------------------------------------------------------------------

e-------------------------------------------------------------------------------------------------
b-------------------------------------------------------------23b[25252525]-----------------------
g-14----12-14-15--14-15-17--15-17-18-17-15-17-----21----------------------------------------------
d-------------------------------------------------------------------------------------------------
a-------------------------------------------------------------------------------------------------
E-------------------------------------------------------------------------------------------------

repeatchorus one and chorus 2 and play it
e-----16-17-16--17-16---------------------------
b-19---------------------19p20p19---------------
g-----------------------------------------------
d0----------------------------------------------
a--------0--------------------------------------
e----------------------------------------------

i am a tab master
write me to gusduv@yahoo.com.mx
Suggest correction
Creating personal tab
Creating personal tab
You can edit any tab online and save it as your Personal.

You can edit, replace or remove any tab part or add personal notes – all changes will be seen only by you.

Personal tabs can be accessed anytime from any device, even offline.
Learn more »
Give kudos to tab author, rate the tab!
1 2 3 4 5
comments
print report bad tab
guest
Wanna post a correction for this tab? Suggest correction