Oops, an error
Loading. Please wait.

Sombra Inerte Del Amor tab

108 views 1 this week
no commentswrite comment
1 2 3 4 5
3 more votes to show rating
add to favorites
×
Save as Personal and add changes to this tab that will be seen only by you. Learn more ›
×
You can save this tab as Personal to edit and correct it or add notes. All changes will be seen only by you. Learn more »
launch autoscroll
font size
0
reset
how to read this tab
guitar tuner
edit
Autoscroll
slow
fast
+/-
esc
set tempo
stop
Esta tab esta 100% correcta, tengo dudas con el riff 2
pero suena bien.
Afinacion *440

INTRO:

 e -----------------------------------------------------------------------
 B -----------------------------------------------------------------------
 G -----------------------------------------------------------------------
 D --14-\-7-7--7--7-5-7-8--7-7-7--7--7--3--7-7--7--7-5-7-8-8/10\8-8-5-7---  -> x3
 A --14-\-7-7--7--7-5-7-8--7-7-7--7--7--3--7-7--7--7-5-7-8-8/10\8-8-5-7---
 E --12-\-5-5--5--5-3-5-6--5-5-5--5--5--1--5-5--5--5-3-5-6-6/8 \6-6-3-5---


ESTROFA:

 e --------------------------------------
 B --------------------------------------
 G --------------------------------------
 D --7-7--7--7---------7-7-7------------- -> x4
 A --7-7--7--7---------7-7-7-------------
 E --5-5--5--5--3-5-6--5-5-5-1-3-1-?-3---

  A  Quíen........ llamar

PRE-CORO:

 e -------1--------------1-----------------------------------------------1--------------
 B -------1--------------1-----------------------------------------------1--------------
 G -------2--------------2-----------------------------------------------2--------------
 D --3-----------(3)-------------7-----------------(7)--------------3-------------(3)---
 A --3-----------(3)-------------7-----------------(7)--------------3-------------(3)---
 E --1-----------(1)-------------5----3-5-6-5-3-5--(5)-3-5-6-5-3-5--1-------------(1)---

   Y en silencio...            muerteeeee....                 hay quienes piensan...


* Intro x 1
* Estrofa x 4

Acá cambia el PRE-CORO

PRE-CORO 2
     F          F              A5                 A5              F           D#5              D5
 e -------1----------1-----------------------------------------------------------------------------
 B -------1----------1-----------------------------------------------------------------------------
 G -------2----------2--------------------------------------------------------8----------------7---
 D --3---------(3)-------------7-----------------(7)--------------3-----------8----------------7---
 A --3---------(3)-------------7-----------------(7)--------------3-----------6----------------5---
 E --1---------(1)-------------5----3-5-6-5-3-5--(5)-3-5-6-5-3-5--1--------------------------------

 Entre la gente esto no es secreto...                        fui marginado... solo un poco de amor


ESTRIBILLO:

       G5    Arreglo 1
Recíbeme
            D#5
Entre tus brazos
  A#5 A5  G5    Arreglo 2
Recí..be..me...
              D#5F5G5  (no te vayas a las 5tas de E, seguí en 5tas de D)
Como alguien sa..no
Riff1
SI hay en MI   sangre al fin
                            Riff2
Necesito comprensión recíbeme


Solo acompañado por Riff2 (x5) Riff3 (x2) C5 G5 F5

     A5 A5 A5 A5
 e ---------------------------
 B --------------------------- -> Escuchen bien cuantos A5 hace, creo que son nueve.
 G ---------------------------
 D --7--7--7--7--------------- -> x 4
 A --7--7--7--7---------------
 E --5--5--5--5--3-5-6--------

* Estrofa x 4
* PRE-CORO 2 x 1

       G5    Arrreglo 1
Recíbeme
            D#5
Entre tus brazos
  A#5 A5  G5    Arreglo 2
Recí..be..me...
             D#5 F5 G5
Como alguien sa..no
Riff 1
SI hay en MI   sangre al fin

Necesito comprensión
      G5
Recíbeme
       D#5          G5
Algo comienza a renacer
               D#5 F5 G5
Muerte en mis venas
F5
Si estas aqui   hazlo al fin
D#5             D5
Vuelve a darme paz...
       Riff2 (x8)
Recíbeme    Recíbeme   Recíbeme

* Final:

        G#5 G5
 e -------------
 B -------------
 G -------------
 D -------6-5---
 A -------6-5---
 E -3-3-3-4-3---

* Arreglo 1        * Arreglo 2

 E -------------    E -------------
 B -------3-----    B -------------
 G -----3-------    G -------------
 D -3-5---------    D -------------
 A -------------    A -------------
 E -------------    E -6-5-1-3-----

* Riff 1
   F           F F              D#       F    D# D
e -------------1-------------------------------------
B -------------1-------------------------------------
G -------------3-------------------------------------
D -3-------------3--------------8--------------------
A -3-------------3--------------6--------8----6--5---
E -1-------------1-----------------------------------
  SI hay en MI,  sangre al fin, necesito compresión


* Riff 2

e -----------------------------------------
B -----------------------------------------
G -----------------------------------------
D -----------------------------------------
A -----------------------------------------
E -3-3-3-3-3-1-3-4-3-1-3---3-3-3-3-3-4-3---

* Riff 3

e ---------------------------------------------------------
B ---------------------------------------------------------
G -4-4-4----------4-4-4-5---4-4-4----------4---------------
D -4-4-4----------4-4-4-5---4-4-4----------4---------------
A -2-2-2-0-2-3--0-2-2-2-3---2-2-2-0-2-3--0-2-0-2-3-2-0-2---
E ---------------------------------------------------------

Gracias a mi viejo que me hizo escuchar Rata cuando tenia 6 años.
Un saludo para todos.
Suggest correction
Creating personal tab
Creating personal tab
You can edit any tab online and save it as your Personal.

You can edit, replace or remove any tab part or add personal notes – all changes will be seen only by you.

Personal tabs can be accessed anytime from any device, even offline.
Learn more »
Give kudos to tab author, rate the tab!
1 2 3 4 5
comments
print report bad tab
guest
Wanna post a correction for this tab? Suggest correction