Oops, an error
Loading. Please wait.

Vuelo Nocturno tab

43 views 3 this week
no commentswrite comment
1 2 3 4 5
3 more votes to show rating
add to favorites
×
Save as Personal and add changes to this tab that will be seen only by you. Learn more ›
×
You can save this tab as Personal to edit and correct it or add notes. All changes will be seen only by you. Learn more »
launch autoscroll
font size
0
reset
how to read this tab
guitar tuner
edit
Autoscroll
slow
fast
+/-
esc
set tempo
stop
Introduccion:
e--------------------------
B--------------------------
G--------------------------
D-------4-----4------------
A-----4-----2--------------
E---2-----0----------------

con intro:

Siento que pierdo la razón
bajo la luna.
Siento el llamado de tu voz
que me tortura.

B5        G5
Amo la extraña sensación,
B5         G5   E5
que me conduce sin piedad,
B5        G5
tanto, tanto en tu pasión
B5        G5  E5
tanto, tanto sin razón.

con intro:

Blanca locura espérame
mientras descanso.
Quiero la noche detener
entre mis brazos.

Voy a ponerle frente a mí.
Haré gemir tu corazón,
tanto, tanto en tu pasión
tanto, tanto entre los dos.

presolo:
e-------------------------------
B-------------------------------
G-------------------------------
D-------------------------------
A---4-4---4-4---4-4---4-4---4-4-
E-0-2-2-0-2-2-0-2-2-0-2-2-0-2-2-

Solo:
e----------------------------12-14-15-14v-----17-17b-17-15-14-15p14-
B-------------------12-14-15--------------17v-----------------------
G----------11-12-14-------------------------------------------------
D-11-12-14----------------------------------------------------------
A-------------------------------------------------------------------
E-------------------------------------------------------------------

e--------17-----17-----17-------------------------------------17fb--
B----17b----17b----17b----17br-17-17h15-17b-15-14-15p14----15-------
G-14----------------------------------------------------14----------
D-------------------------------------------------------------------
A-------------------------------------------------------------------
E-------------------------------------------------------------------

e----15fbr-14-15p14---------------------------------------------15--
B-15----------------15b-12h14-12----------------------------15b-----
G--------------------------------12h14-12---------------------------
D-----------------------------------------12h14-12------------------
A--------------------------------------------------12h14-12---------
E-------------------------------------------------------------------

e-----15-----15-17fb-17v------------------------
B-15b----15b------------------------------5-3-5-
G-----------------------------------------------
D-----------------------------------------------
A--------------------4-5-7-9--10-12-14-16-------
E------------------------9-10-12-14-15-17-------

E5 E5F#5G5             D5           A5
Vuelo nocturno salto al cielo con vos,
E5    E5F#5G5         D5        A5 A#5
como dos gárgolas que buscan su amor.

Amo la extraña sensación,
que me conduce sin piedad,
tanto, tanto en tu pasión
tanto, tanto sin razón

Final con presolo.

            
            
Suggest correction
Creating personal tab
Creating personal tab
You can edit any tab online and save it as your Personal.

You can edit, replace or remove any tab part or add personal notes – all changes will be seen only by you.

Personal tabs can be accessed anytime from any device, even offline.
Learn more »
Give kudos to tab author, rate the tab!
1 2 3 4 5
comments
print report bad tab
guest
Wanna post a correction for this tab? Suggest correction