Oops, an error
Loading. Please wait.

Ezquizofrenia Tab

48 views 1 this week
no commentswrite comment
1 2 3 4 5
3 more votes to show rating
add to favorites
launch autoscroll
font size
0
reset
how to read this tab
guitar tuner
Autoscroll
slow
fast
+/-
esc
set tempo
stop
Help us to improve Ultimate-Guitar.com Take our survey!
×
CANCION:"EZQUIZOFRENIA"
BANDA:"RATAMA"
ESCRITA POR:MARIO RUIZ

INTRO:(GUITARRA 2)

e----------------------------------------------------------------------------
B---------8-----------------8-------------------6-------------------6--------
G-----9-----9---9-------9-----9---9---------7-----7---7---------7------7--7--
D---9---9-----9-------9---9-----9---------7---7-----7--------7----7------7---
A-7-----------------7-------------------5------------------5-----------------
E----------------------------------------------------------------------------


VERSO:(GUITARRA 2)

e-------------------------------------------------------------------------
B---------8-----------------8-----------------6------------------6--------
G-----9-----9---9-------9-----9---9-------7-----7---7--------7------7--7--(X2
D---9---9-----9-------9---9-----9-------7---7-----7-------7----7------7---
A-7-----------------7-----------------5-----------------5-----------------
E-------------------------------------------------------------------------


e-------------------------------------------------------------------
B-------------------------------------8-------------------8---------
G-----5--------3--------2---------9------9---9--------9--------9---- (X2)
D---5--------3--------2---------9---9------9--------9---9----9---9--
A-3-----3--1-----1--0------0--7------------------7------------------
E-------------------------------------------------------------------

e---------------------
B---------------------
G-9-9-9-9-9---9-------
D-9-9-9-9-9---9-------
A-7-7-7-7-7---7-------
E---------------------


CORO:(GUITARRA 1 & 2)

e-------------------------------------------------------
B-------------------------------------------------------
G-9-9-9-9-9----7-7-7-7-7----5-5-5-5-5-3-5---7-7-7-7-7--- (X3)
D-9-9-9-9-9----7-7-7-7-7----5-5-5-5-5-3-5---7-7-7-7-7---
A-7-7-7-7-7----5-5-5-5-5----3-3-3-3-3-1-3---5-5-5-5-5---
E-------------------------------------------------------

e----------------------------------------------------
B----------------------------------------------------
G-9-9-9-9-9----7-7-7-7-7----5-5-5-5-5-3-5---7-7-7---- (X1)"ESTA ES LA FINAL
D-9-9-9-9-9----7-7-7-7-7----5-5-5-5-5-3-5---7-7-7----       DEL CORO"
A-7-7-7-7-7----5-5-5-5-5----3-3-3-3-3-1-3---5-5-5----
E----------------------------------------------------


CORO(2)(FINAL):

GUITARRA 1:
e-----------------------------------------------------------------
B-----------------------------------------------------------------
G-9------9-----X--7------7------X-5-----5--------3--5--7------7---
D-9------9-----X--7------7------X-5-----5--------3--5--7------7---
A-7------7-----X--5------5------X-3-----3--------1--3--5------5---
E-----------------------------------------------------------------

GUITARRA 2:
e------------------------------------------------------------------------
B----------8----------------6----------------4-------------------6-------
G-9----9--------9-7----7--------7-5-----5--------3--5--7-----7-----7-----
D-9------9------9-7-------7-----7-5--------5-----3--5--7-------7---------
A-7-7-----------7-5-5-----------5-3--3-----------1--3--5--5--------------
E------------------------------------------------------------------------



GUITARRA 1:
e---------------------------------------------------------------
B---------------------------------------------------------------
G-9------9------X-7-------7-----X-5------5-------3--5---7---7---
D-9------9------X-7-------7-----X-5------5-------3--5---7---7---
A-7------7------X-5-------5-----X-3------3-------1--3---5---5---
E---------------------------------------------------------------

GUITARRA 2:
e-------------------------------------------------------------------
B----------8----------------6----------------4----------------------
G-9----9--------9-7----7--------7-5-----5--------3--5--7--7--7------
D-9------9------9-7-------7-----7-5--------5-----3--5--7--7--7------
A-7-7-----------7-5-5-----------5-3--3-----------1--3--5--5--5------
E-------------------------------------------------------------------

Suggest correction
Give kudos to tab author, rate the tab!
1 2 3 4 5
comments
print report bad tab
guest
You may want to rate the tab now too:
select rating
Wanna post a correction for this tab? Suggest correction