Oops, an error
Loading. Please wait.

Abrasive tab

version 2
version 2

Whole song

by Ratatat
8,651 views 24 this week
2 commentsread comments
1 2 3 4 5
x 11
add to favorites
×
Save as Personal and add changes to this tab that will be seen only by you. Learn more ›
×
You can save this tab as Personal to edit and correct it or add notes. All changes will be seen only by you. Learn more »
launch autoscroll
font size
0
reset
how to read this tab
guitar tuner
edit
Autoscroll
slow
fast
+/-
esc
set tempo
stop
Author
Difficulty
intermediate
[Intro]

(I think it is played with a synth, but it sounds great on guitar too)

e|---------------------------------------------------------------------------------------|
B|---------------------------------------------------------------------------------------|
G|---------------------------------------------------------------------------------------|
D|--12-10-8---8-10-12-10-------------------9h10/12------12-13----------------------------|
A|-------------------------12-9-12/13-10-------------13-------13-9-----------------------|
E|---------------------------------------------------------------------------------------|


e|---------------------------------------------------------------------------------------|
B|---------------------------------------------------------------------------------------|
G|---------------------------------------------------------------------------------------|
D|--13-12-10-12-10----10-------12-----------------------------12-13----------------------|
A|-----------------12----12-13------12-13-12-10-12-10h12/13---------13-12-10-------------|
E|----------------------------------------------------------------------------13-11------|

repeat 2 times

Riff 1 (0:46)

e|---------------------------------------------------------------------------------------|
B|---------------------------------------------------------------------------------------|
G|---------------------------------------------------------------------------------------|
D|------------------------12-10-8----10-12-8------12-10-8----10-12-10---10-12------------|
A|---------------------10---------10-----------10---------10------------------8----------|
E|---------------------------------------------------------------------------------------|


e|-------------------------------------------------------------------------------------------|
B|-------------------------------------------------------------------------------------------|
G|-------------------------------------------------------------------------------------------|
D|---8-8-----8-10---------12-10-8----10-12-8------12-10-8----10-12-10---10-12-----10-12-7--8-|
A|-8------10------10---10---------10-----------10---------10------------------8--------------|
E|-------------------------------------------------------------------------------------------|


e|---------------------------------------------------------------------------------------|
B|---------------------------------------------------------------------------------------|
G|---------------------------------------------------------------------------------------|
D|---8-8-----8-10---------12-10-8----10-12-8------12-10-8----10-12-10---10-12------------|
A|-8------10------10---10---------10-----------10---------10------------------8----------|
E|---------------------------------------------------------------------------------------|


e|-------------------------------------------------------------------------------------------|
B|-------------------------------------------------------------------------------------------|
G|-------------------------------------------------------------------------------------------|
D|---8-8-----8-10---------12-10-8----10-12-8------12-10-8----10-12-10---10-12-----10-12-7--8-|
A|-8------10------10---10---------10-----------10---------10------------------8--------------|
E|-------------------------------------------------------------------------------------------|

repeat until 02:08

Riff 2 (02:10)

e|------------------------------------------------------|
B|------------------------------------------------------|
G|------------------------------------------------------|
D|-------8-10-7---7-7-8---------10-12-8---7-8-7---------|
A|--(10)----------------10---10-----------------10-(8)--|
E|------------------------------------------------------|

repeat 4 times

Solo riff
starts at 01:39

e|-----------15-15b17b15------------|
B|--15h16h18-------------16h18p15---|
G|----------------------------------|
D|----------------------------------|
A|----------------------------------|
E|----------------------------------|


at 02:09

e|-----------15-15b17b15---------------------------------------------------------------------------|
B|--15h16h18-------------16p15------------15-16-16b18b16-15------------------15-15b17b15-----------|
G|-----------------------------17---15h17-------------------17p15---14h15h17-------------17p15p14--|
D|-------------------------------------------------------------------------------------------------|
A|-------------------------------------------------------------------------------------------------|
E|-------------------------------------------------------------------------------------------------|

e|-----------------------------|
B|-----------------------------|
G|-15-12---14-15---15-14-------|
D|-----------------------------|
A|------------------------(10)-|
E|-----------------------------|


The next part is actually an octave higher, but you cant get this with standard tuning

e|----------15-15b17b15---------------------------------------------------------------------------|
B|-15h16h18-------------16p15------------15-16-16b18b16-15------------------15-15b17b15-----------|
G|----------------------------17---15h17-------------------17p15---14h15h17-------------17p15p14--|
D|------------------------------------------------------------------------------------------------|
A|------------------------------------------------------------------------------------------------|
E|------------------------------------------------------------------------------------------------|

e|--------------------------------------|
B|-----------------15-------------------|
G|-15-12---14-15------17-15-14-15-14-12-|
D|--------------------------------------|
A|--------------------------------------|
E|--------------------------------------|

Riff 3 (03:11) can be played with bottleneck

e|-------------------------------------|
B|-------------------------------------|
G|-------------------------------------|
D|----------12/13----------------------|
A|--13\12-----------12-12---13\6--6-5--|
E|-------------------------------------|

e|-------------------------------------|
B|-------------------------------------|
G|-------------------------------------|
D|----------12/13----------------------|
A|--13\12-----------12-12---13\6-------|
E|-------------------------------------|

Riff 4 (03:40) or you can play Riff 1

e|----------------------------------------------------------------------------------------------|
B|-----11-11------11-13------15-15-15-13-11----13-15-11---15-15-15-13-11----13-15-13---13-15----|
G|--10---------12-------12------------------12---------------------------12------------------10-|
D|----------------------------------------------------------------------------------------------|
A|----------------------------------------------------------------------------------------------|
E|----------------------------------------------------------------------------------------------|

e|----------------------------10-12/13-18--|
B|-----11-11------11-10-11-13--------------|
G|--10---------12--------------------------|
D|-----------------------------------------|
A|-----------------------------------------|
E|-----------------------------------------|


e|------------------------------------------------------------------------------------|
B|-15-15-15-13-11----13-15-11---15-15-15-13-11----13-15-13---13-15------13-15-10--11--|
G|----------------12---------------------------12------------------10-----------------|
D|------------------------------------------------------------------------------------|
A|------------------------------------------------------------------------------------|
E|------------------------------------------------------------------------------------|

[End Riff]

e|---------------------------|
B|---------------------------|
G|---------------------------|
D|-8-8-8-8-8-8-8-8-8-8-8-8-8-|
A|-8-8-8-8-8-8-8-8-8-8-8-8-8-|
E|-6-6-6-6-6-6-6-6-6-6-6-6-6-|



************************************

| (n)  Ghost note
| h    Hammer-on
| p    Pull-off
| b    Bend
| /    Slide up
| \    Slide down

************************************

            
            
Suggest correction
Creating personal tab
Creating personal tab
You can edit any tab online and save it as your Personal.

You can edit, replace or remove any tab part or add personal notes – all changes will be seen only by you.

Personal tabs can be accessed anytime from any device, even offline.
Learn more »
comments
print report bad tab
2 comments total.
0 reply
camenbert99 10 Oct 03, 2015 02:33 AM

Fantastic man, thanks! :D

0 reply
UnavailableUser 155 Oct 13, 2015 01:51 PM

Maybe I'm hearing it wrong, but I think the Intro sounds like this:

e|-----------------------------------------------------|
B|-----------------------------------------------------|
G|-----------------------------------------------------|
D|-12-10-8~----10-12-10~------------8-------8h10/12----|
A|------------------------12--10-12----12--------------|
E|-----------------------------------------------------|

e|-----------------------------------------------------|
B|-----------------------------------------------------|
G|-----------------------------------------------------|
D|-10-12-13~---10-----13-12-10-12-10--------------12~--|
A|----------------12-----------------12--13-12-13------|
E|-----------------------------------------------------|

e|------------------------------------------------------------|
B|------------------------------------------------------------|
G|------------------------------------------------------------|
D|-----------------------------12-13--------------------------|
A|-12-13-12-10-12~--10h12/13----------13~~-12-10--------------|
E|-----------------------------------------------13-11-10-8-6-|

Let me know what you think

guest
You may want to rate the tab now too:
select rating
Wanna post a correction for this tab? Suggest correction