Oops, an error
Loading. Please wait.

Wildcat bass

version 1
version 1

Whole song

by Ratatat
21,817 views 15 this week
2 commentsread comments
1 2 3 4 5
x 8
add to favorites
×
Save as Personal and add changes to this tab that will be seen only by you. Learn more ›
×
You can save this tab as Personal to edit and correct it or add notes. All changes will be seen only by you. Learn more »
launch autoscroll
font size
0
reset
guitar tuner
edit
Autoscroll
slow
fast
+/-
esc
set tempo
stop
--------------------------------------------------------------
			     Wildcat - Ratatat
--------------------------------------------------------------
Tabbed By : Marc Weersink
e-mail: mice.eeatcheese@hotmail.com

Tuning: EADG

These are the variations of the bass line.   (11's not 1's)

G|--------------------------6--------------------------------|
D|-----------------------------------------------------------|
A|-8-8—6h8--------6-6-6-4----4/8-8-8-6h8—6h8-8-8/11-1111-----|
E|----------6h8--8-------------------------------------------|

G|---------------------------6-------------------------------|
D|-----------------------------------------------------------|
A|--8-8—6h8--------6-6-6-4----4/8-8-8-6h8—6h8-8-8------------|
E|-----------6h8--8-----------------------------------6-6----|

G|--------------------------6--------------------------------|
D|-----------------------------------------------------------|
A|-8-8—6h8--------6-6-6-4----4/8-8-8-6h8—6h8-8-8/11-1111-----|
E|----------6h8--8-------------------------------------------|

G|---------------------------6-------------------------------|
D|-----------------------------------------------------------|
A|--8-8—6h8--------6-6-6-4----4/8-8-8-6h8—6h8~---------------|
E|-----------6h8--8------------------------------------------|

I’m not 100% on this part, but correct me if you know it.

G|-----------------------------------------------------------|
D|-----------------------------------------------------------|
A|-------------6-6-6-6-66-------------8----------------------|
E|-6-6-6-6-66--------------9-9-9-9-99------4-44--------------|

Play this for the rest of the song.

G|-----------------------------------------------------------|
D|-----------------------------------------------------------|
A|----------------------/8-88~--/8-88~-----------------------|
E|--/6-66~----/9-99~-----------------------------------------|

            
            
Suggest correction
Creating personal tab
Creating personal tab
You can edit any tab online and save it as your Personal.

You can edit, replace or remove any tab part or add personal notes – all changes will be seen only by you.

Personal tabs can be accessed anytime from any device, even offline.
Learn more »
comments
print report bad tab
2 comments total.
0 reply
CarlosHigg 10 Jan 30, 2011 04:36 PM

Catchiest bassline ever! Thanks dude

0 reply
saddhukhan 10 Jun 15, 2014 09:21 AM

Excellent work, Marc. There is only one issue I came across and that was the bridge section. I have retranscribed it below with some minor corrections.

Keep up the good work.

G|--------------------------6--------------------------------|
D|-----------------------------------------------------------|
A|-8-8?6h8--------6-6-6-4----4/8-8-8-6h8?6h8-8-8/11-1111-----|
E|----------6h8--8-------------------------------------------|

G|---------------------------6-------------------------------|
D|-----------------------------------------------------------|
A|--8-8?6h8--------6-6-6-4----4/8-8-8-6h8?6h8-8-8------------|
E|-----------6h8--8-----------------------------------6-6----|

G|--------------------------6--------------------------------|
D|-----------------------------------------------------------|
A|-8-8?6h8--------6-6-6-4----4/8-8-8-6h8?6h8-8-8/11-1111-----|
E|----------6h8--8-------------------------------------------|

G|---------------------------6-------------------------------|
D|-----------------------------------------------------------|
A|--8-8?6h8--------6-6-6-4----4/8-8-8-6h8?6h8~---------------|
E|-----------6h8--8------------------------------------------|

I?m not 100% on this part, but correct me if you know it.

G|-----------------------------------------------------------|
D|-----------------------------------------------------------|
A|-------------8-8-8-8-8---6-6-6-6-66------------------------|
E|-6-6-6-6-66---------------------------1-1-1-1-11-----------|

Play this for the rest of the song.

G|-----------------------------------------------------------|
D|-----------------------------------------------------------|
A|----------------------/8-88~--/8-88~-----------------------|
E|--/6-66~----/9-99~-----------------------------------------|

G|-----------------------------------------------------------|
D|-----------------------------------------------------------|
A|----------------------/8-88~--/8-8-6~-----------------------|
E|--/6-66~----/9-99~-----------------------------------------|

guest
You may want to rate the tab now too:
select rating
Wanna post a correction for this tab? Suggest correction