Oops, an error
Loading. Please wait.

Dalia tab

by Ratio
47 views 1 this week
no commentswrite comment
1 2 3 4 5
3 more votes to show rating
add to favorites
×
Save as Personal and add changes to this tab that will be seen only by you. Learn more ›
×
You can save this tab as Personal to edit and correct it or add notes. All changes will be seen only by you. Learn more »
launch autoscroll
font size
0
reset
how to read this tab
guitar tuner
edit
Autoscroll
slow
fast
+/-
esc
set tempo
stop
                     Letras y arreglos :Ricky,Juàn y Price
                     RATIO
DALIA


Intro Riff 1
  E                       C                  G             F#      C
---------------------------------------------------------------------------------------------------------------------------------------------------------------------
---------------------------------------------------------------------------------------------------------------------------------------------------------------------
-----------------------------------------------------------------------0--------------------------------------------------------------------------------------------
--0_3--3-3--3-3----2-2-2--2-2---0-0-0-0-0--0-0---0_2--2----------------------------------------------------------------------------------------------
--2-----2-2--2-2----3-3-3--3-3---2-2-2-2-2--0-0---0_3--------------------------------------------------------------------------------------------------
--0-----0-0--0-0-0-0-0-0--0-0---3-3-3-3-3--2-2----------------------------------------------------------------------------------------------------------
Èste intro lleva gtr. Acùstica en las primeras 8 vueltas despuès entra con elèctrica limpia durante todo el tiempo de la letra y en el solo con distor. 

Solo
-------------------------------------------------------------------------------------------------------------------------------------------
-----------------------------------------15------------------------------13_15-15--13-12-13-15-13-12-13-12_13_12-10--
--------------------12--12-12---14!-----14!--14-12-14_16_14------------------------------------------------------------------
-----------12_14-14--14-14----------------------------------------------------------------------------------------------------------
--12_15---------------------------------------------------------------------------------------------------------------------------------
-------------------------------------------------------------------------------------------------------------------------------------------

-------------------------------------------------------------------------------------------------------------------------------------------
--------------------------------------------------------------ah--------------------------------------------------------------------------
-16-17-14-16-----14------------------------------------------------------------------------------------------------16_17-17-17-
------------------17-----16-17-14-16-----12_14-14-14-14-14-14-14-14_12-12-12-12-12_14-12---16_17-17-17--
--------------------------------------------------------------------------------------------------------------------------------------------
--------------------------------------------------------------------------------------------------------------------------------------------

----------------------------------------------------------------------------------19------19-------19-------20--------20-------20--------
-17-17-17-17-17-17_16-16-16-16-16-16-16-16-16-16-16-----------------------------------------------------------------------
-17-17-17-17-17-17_16-16-16-16-16-16-16-16-16-16-16------------16-------16-------16-------17--------17-------17---
-------------------------------------------------------------------------------------------------------------------------------------------------
-------------------------------------------------------------------------------------------------------------------------------------------------
-------------------------------------------------------------------------------------------------------------------------------------------------

------------------------------------17________________/-------------------------------------------------------------------------------
-19!-19!-19!-19!-19!----------------------------------------------------------------------------------------------------------------
--------------------------------------------------------------------------------------------------------------------------------------------------
--------------------------------------------------------------------------------------------------------------------------------------------------
--------------------------------------------------------------------------------------------------------------------------------------------------
--------------------------------------------------------------------------------------------------------------------------------------------------

Riff2      Èste Riff se toca durante el solo con distor y despuès del solo repitiendo la segunda estrofa de la letra ,despuès se                     
              Cuatro veces y ese es el final       

----------------------------------------------------------------------
----------------------------------------------------------------------
----------------------------------------------------------------------
--------------5--5---------------------------------------------------
--2--2--2---3--3----5--5--5--------------5--4----2-------------
--0--0--0------------3--3--3---2_3_2---3--2----0-------------
El ùltimo a corde se toca sòlamente en la ùltima vuelta
Suggest correction
Creating personal tab
Creating personal tab
You can edit any tab online and save it as your Personal.

You can edit, replace or remove any tab part or add personal notes – all changes will be seen only by you.

Personal tabs can be accessed anytime from any device, even offline.
Learn more »
Give kudos to tab author, rate the tab!
1 2 3 4 5
comments
print report bad tab
guest
Wanna post a correction for this tab? Suggest correction