Oops, an error
Loading. Please wait.

El Llanto tab

by Ratio
29 views 1 this week
no commentswrite comment
1 2 3 4 5
3 more votes to show rating
add to favorites
×
Save as Personal and add changes to this tab that will be seen only by you. Learn more ›
×
You can save this tab as Personal to edit and correct it or add notes. All changes will be seen only by you. Learn more »
launch autoscroll
font size
0
reset
how to read this tab
guitar tuner
edit
Autoscroll
slow
fast
+/-
esc
set tempo
stop
El llanto-letras  y arreglos : Ricky y Juan

En los compaces de la letra se toca Riff1,enlos
del coro se toca Riff 2,en el solo se tocael R3
-bataca ; Price.
Despuès del solo se toca el Riff tres y la lira 
lira lider toca el pre pick y en la 16va vez toca
el pick final.
 
Intro                                      riff 1                          
B       C      D       B     C     E             B              C                  D                 D
-------------------------------------------------------------------------------------------------------------------------------------------
------0--------0------0------0------0-------------------------------0-------------------0-------------------0--------------------0---------
----0--------0-------0------0------0----------------------------0------0---------0--------0----------0-------0----------0--------0----0----
---4-------4-------4------4-----4---------------------------- 4---4------4----4----4--------4----4----4-------4----4----4--------4---------
-2-------3-------5-------2-----3---------------------------2----------------3--------------------5------------------5----------------------
-------------------------------------------0-----------------------------------------------------------------------------------------------

Riff2-coro
 C                   D                          C                     D                     E                      E                  
-------------------------------------------------------------------------------------------------------------------------------------------
------------0------------------0---------------------0------------------0-------------------0-----------------0----------------------------
--------0-----0---------0--------0------------0-------0---------0-------0----------0-------0---------0-------0-----------------------------
-----4----4-----4----4----4-------4-------4----4-------4---4----4-------4----9-----9------9----9----9-------9------------------------------
--3----------------5-------------------5-3------------------5------------------7------------------7----------------------------------------
-------------------------------------------------------------------------------------------------------------------------------------------

SOLO
   sl
----------------------------------------------------------------------------------------------12-14-15-17-15-14-15-17--19-19-19-19-19------
-------------------------------------------------------------------------------------------------------------------------------------------
-7_9------9-11-12-11----14-12-11-----------------------------------------------------------------------------------------------------------
-------9-9----------------12-------------10---------------------9-10-12-10-9-10-9----------------------------------------------------------
------------------------------------------------12-10-9-10-12------------------------------------------------------------------------------
-------------------------------------------------------------------------------------------------------------------------------------------


                                               sl                                             sl                                           
-------------------------------------------------------------------------------------------------------------------------------------------
-------------------------------------------------------------------------------------------------------------------------------------------
-------------------------------------------------------------------------------------------------------------------------------------------
-------------------------------------------------------------------------------------------------------------------------------------------
-12-12-12-12-12-12-12-12-12_10---10-10-10-10-10-10-10_9--9-9-9-9-9-9-9-9-9-9-9-9_7_5-5-2_3-3-3-3-3--3-5_7-5/5------------------------------
-------------------------------------------------------------------------------------------------------------------------------------------
Riff3
B                   C                D
------------------------------------------------------------------------------------------------------------------------------------------------------------------
------------------------------------------------------------------------------------------------------------------------------------------------------------------
------------------------------------------------------------------------------------------------------------------------------------------------------------------
-4-4-4---2--4--5-5-5--4-5--7-7-7-------------------------------------------------------------------------------------------------------------------------
-2-2-2--0---2--3-3-3--2-3--5-5-5-5_7-5-3-2-3-2--0--------------------------------------------------------------------------------------------------
------------------------------------------------------------------------------------------------------------------------------------------------------------------

 
                                                                      pick-final                                         bck-sl
--------------------------------------------------------------------------------------------------------------------------------------------------------------------
--------------------------------------------------------------------------------------------------------------------------------------------------------------------
---/9-7-5-4-5-4-----------/9-7-5-4-5-4-5-7/---------_9-7-5-4--------------------------------------------------------------------------------------------
--------------------5-2/------------------------------------------------5_7-5-4---9---------------9_____________0------------------------------------
--------------------------------------------------------------------------------------7----------------7_____________0-----------------------------------
--------------------------------------------------------------------------------------------------------------------------------------------------------------------
Los Slides aunque estàn marcados se simbolizan asì ?___?     ah quiere decir harmònico artificial
Bck-sl es slide hacia atràs                        Los Riffs son los plumilleos

            
            
Suggest correction
Creating personal tab
Creating personal tab
You can edit any tab online and save it as your Personal.

You can edit, replace or remove any tab part or add personal notes – all changes will be seen only by you.

Personal tabs can be accessed anytime from any device, even offline.
Learn more »
Give kudos to tab author, rate the tab!
1 2 3 4 5
comments
print report bad tab
guest
Wanna post a correction for this tab? Suggest correction