Oops, an error
Loading. Please wait.

City Of Night Bass Tab

10 views 1 this week
no commentswrite comment
1 2 3 4 5
3 more votes to show rating
add to favorites
launch autoscroll
font size
0
reset
guitar tuner
Autoscroll
slow
fast
+/-
esc
set tempo
stop
Help us to improve Ultimate-Guitar.com Take our survey!
×
Author
Difficulty
novice
[Intro]
G|-------------------|-----------------------|-------------------|-----------------------|
D|--7-7-7-7-7-7-7-7--|-----------------------|--7-7-7-7-7-7-7-7--|-----------------------|
A|-------------------|--8-8-8-8-10-10-10-10--|-------------------|--8-8-8-8-10-10-10-10--|
E|-------------------|-----------------------|-------------------|-----------------------|

G|-------------------|-----------------------|-------------------|-----------------------|
D|--7-7-7-7-7-7-7-7--|-----------------------|--7-7-7-7-7-7-7-7--|-----------------------|
A|-------------------|--8-8-8-8-10-10-10-10--|-------------------|--8-8-8-8-10-10-10-10--|
E|-------------------|-----------------------|-------------------|-----------------------|

[Verse 1]
G|---------------------------|--------------9-9------|-------------------|-----------------------|
D|--10-10-10-10-10-10-10-10--|--10-10-10-10-----9-9--|--7-7-7-7-7-7-7-7--|--7-7-7-7-10-10--------|
A|---------------------------|-----------------------|-------------------|----------------10-10--|
E|---------------------------|-----------------------|-------------------|-----------------------|

G|-------------------|-------------------|---------------------------|---------------------------|
D|-------------------|-------------------|---------------------------|---------------------------|
A|--8-8-8-8-8-8-8-8--|--8-8-8-8-7-7-8-8--|--10-10-10-10-10-10-10-10--|--10-10-10-10-10-10-10-10--|
E|-------------------|-------------------|---------------------------|---------------------------|

G|---------------------------|--------------9-9------|-------------------|-----------------------|
D|--10-10-10-10-10-10-10-10--|--10-10-10-10-----9-9--|--7-7-7-7-7-7-7-7--|--7-7-7-7-10-10--------|
A|---------------------------|-----------------------|-------------------|----------------10-10--|
E|---------------------------|-----------------------|-------------------|-----------------------|

G|-------------------|-------------------|---------------------------|---------------------------|
D|-------------------|-------------------|---------------------------|---------------------------|
A|--8-8-8-8-8-8-8-8--|--8-8-8-8-7-7-8-8--|--10-10-10-10-10-10-10-10--|--10-10-10-10-10-10-10-10--|
E|-------------------|-------------------|---------------------------|---------------------------|

[Chorus]
G|-------------------|-----------------------|-------------------|-----------------------|
D|--7-7-7-7-7-7-7-7--|-----------------------|--7-7-7-7-7-7-7-7--|-----------------------|
A|-------------------|--8-8-8-8-10-10-10-10--|-------------------|--8-8-8-8-10-10-10-10--|
E|-------------------|-----------------------|-------------------|-----------------------|

G|-------------------|-----------------------|-------------------|-----------------------|
D|--7-7-7-7-7-7-7-7--|-----------------------|--7-7-7-7-7-7-7-7--|-----------------------|
A|-------------------|--8-8-8-8-10-10-10-10--|-------------------|--8-8-8-8-10-10-10-10--|
E|-------------------|-----------------------|-------------------|-----------------------|

G|-------------------|-----------------------|-------------------|-----------------------|
D|--7-7-7-7-7-7-7-7--|-----------------------|--7-7-7-7-7-7-7-7--|-----------------------|
A|-------------------|--8-8-8-8-10-10-10-10--|-------------------|--8-8-8-8-10-10-10-10--|
E|-------------------|-----------------------|-------------------|-----------------------|

G|-------------------|-----------------------|-------------------|-----------------------|
D|--7-7-7-7-7-7-7-7--|-----------------------|--7-7-7-7-7-7-7-7--|-----------------------|
A|-------------------|--8-8-8-8-10-10-10-10--|-------------------|--8-8-8-8-10-10-10-10--|
E|-------------------|-----------------------|-------------------|-----------------------|

[Verse 2]
G|---------------------------|--------------9-9------|-------------------|-----------------------|
D|--10-10-10-10-10-10-10-10--|--10-10-10-10-----9-9--|--7-7-7-7-7-7-7-7--|--7-7-7-7-10-10--------|
A|---------------------------|-----------------------|-------------------|----------------10-10--|
E|---------------------------|-----------------------|-------------------|-----------------------|

G|-------------------|-------------------|---------------------------|---------------------------|
D|-------------------|-------------------|---------------------------|---------------------------|
A|--8-8-8-8-8-8-8-8--|--8-8-8-8-7-7-8-8--|--10-10-10-10-10-10-10-10--|--10-10-10-10-10-10-10-10--|
E|-------------------|-------------------|---------------------------|---------------------------|

G|---------------------------|--------------9-9------|-------------------|-----------------------|
D|--10-10-10-10-10-10-10-10--|--10-10-10-10-----9-9--|--7-7-7-7-7-7-7-7--|--7-7-7-7-10-10--------|
A|---------------------------|-----------------------|-------------------|----------------10-10--|
E|---------------------------|-----------------------|-------------------|-----------------------|

G|-------------------|-------------------|---------------------------|---------------------------|
D|-------------------|-------------------|---------------------------|---------------------------|
A|--8-8-8-8-8-8-8-8--|--8-8-8-8-7-7-8-8--|--10-10-10-10-10-10-10-10--|--10-10-10-10-10-10-10-10--|
E|-------------------|-------------------|---------------------------|---------------------------|

[Bridge]
G|---------------------------|-----------------------| (x8)
D|---------------------------|-----------------------|
A|---------------------------|--------------8-8------|
E|--10-10-10-10-10-10-10-10--|--10-10-10-10-----8-8--|

[Chorus]
G|-------------------|-----------------------|-------------------|-----------------------|
D|--7-7-7-7-7-7-7-7--|-----------------------|--7-7-7-7-7-7-7-7--|-----------------------|
A|-------------------|--8-8-8-8-10-10-10-10--|-------------------|--8-8-8-8-10-10-10-10--|
E|-------------------|-----------------------|-------------------|-----------------------|

G|-------------------|-----------------------|-------------------|-----------------------|
D|--7-7-7-7-7-7-7-7--|-----------------------|--7-7-7-7-7-7-7-7--|-----------------------|
A|-------------------|--8-8-8-8-10-10-10-10--|-------------------|--8-8-8-8-10-10-10-10--|
E|-------------------|-----------------------|-------------------|-----------------------|

[Verse 3]
G|---------------------------|--------------9-9------|-------------------|-----------------------|
D|--10-10-10-10-10-10-10-10--|--10-10-10-10-----9-9--|--7-7-7-7-7-7-7-7--|--7-7-7-7-10-10--------|
A|---------------------------|-----------------------|-------------------|----------------10-10--|
E|---------------------------|-----------------------|-------------------|-----------------------|

G|-------------------|-------------------|---------------------------|---------------------------|
D|-------------------|-------------------|---------------------------|---------------------------|
A|--8-8-8-8-8-8-8-8--|--8-8-8-8-7-7-8-8--|--10-10-10-10-10-10-10-10--|--10-10-10-10-10-10-10-10--|
E|-------------------|-------------------|---------------------------|---------------------------|

G|---------------------------|--------------9-9------|-------------------|-----------------------|
D|--10-10-10-10-10-10-10-10--|--10-10-10-10-----9-9--|--7-7-7-7-7-7-7-7--|--7-7-7-7-10-10--------|
A|---------------------------|-----------------------|-------------------|----------------10-10--|
E|---------------------------|-----------------------|-------------------|-----------------------|

G|-------------------|-------------------|---------------------------|---------------------------|
D|-------------------|-------------------|---------------------------|---------------------------|
A|--8-8-8-8-8-8-8-8--|--8-8-8-8-7-7-8-8--|--10-10-10-10-10-10-10-10--|--10-10-10-10-10-10-10-10--|
E|-------------------|-------------------|---------------------------|---------------------------|

[Chorus] (repeat until the end)
G|-------------------|-----------------------|-------------------|-----------------------|
D|--7-7-7-7-7-7-7-7--|-----------------------|--7-7-7-7-7-7-7-7--|-----------------------|
A|-------------------|--8-8-8-8-10-10-10-10--|-------------------|--8-8-8-8-10-10-10-10--|
E|-------------------|-----------------------|-------------------|-----------------------|


************************

in regular sequence!

************************
Suggest correction
Give kudos to tab author, rate the tab!
1 2 3 4 5
comments
print report bad tab
guest
You may want to rate the tab now too:
select rating
Wanna post a correction for this tab? Suggest correction