Oops, an error
Loading. Please wait.

Cuantas Onzas Son Necesarias Para Ser Feliz tab

31 views 1 this week
no commentswrite comment
1 2 3 4 5
3 more votes to show rating
add to favorites
×
Save as Personal and add changes to this tab that will be seen only by you. Learn more ›
×
You can save this tab as Personal to edit and correct it or add notes. All changes will be seen only by you. Learn more »
launch autoscroll
font size
0
reset
how to read this tab
guitar tuner
edit
Autoscroll
slow
fast
+/-
esc
set tempo
stop
Tab by WarioRojas
mariopereirano@

Ya saben que todos los acordes son tocados
como 5ºtas(acordes de poder)

Intro:
C

C A# G# F ]x2


C
Anda!
C
Qué esperas?
C          G#  D#
Las venas brotan,
C                      G#  F
y esperan con ansiedad


A#  G#
   La onza de verdad
G#           A#
cuantas onzas
C
son necesarias para ser feliz?

G#            A#               C
  Me estoy muriendo por dentro... dentro...

A# G#


C A# G# F


Solo:
----------------------|---------------8/10--8--|
------------11/13-11--|------------------------|
-----7-8-10-----------|-----7--8--10-----------|
--10------------------|--10--------------------|
----------------------|------------------------|
----------------------|------------------------|

---------------|----------20--------------22---------|
---------------|------18------18------18------18-----|
--17--19--15~~-|--20--------------20--------------20-|
---------------|-------------------------------------|
---------------|-------------------------------------|
---------------|-------------------------------------|

C
Anda!
C
Qué esperas?
C          G#  D#
Las venas brotan,
C                      G#  F
y esperan con ansiedad

G#          A#  C
cuantas onzas   son necesarias para ser feliz?
G#            A#               C               A# G#
  Me estoy muriendo por dentro... dentro...


------------------------------|------------------------------|
------------------------------|------------------------------|
------------------------------|------------------------------|
--5--5------------------------|--5--5------------------------|
--3--3--3--3--3--3--6p3--4p3--|--3--3--3--3--3--3--4p3--4p3--|
------------------------------|------------------------------|
        Gota a gota

------------------------------|--------------------------------|
------------------------------|--------------------------------|
------------------------------|--------------------------5~----|
--5--5------------------------|--5--5--------------5--5--------|
--3--3--3--3--3--3--6p3--4p3--|--3--3--3--3--3--3--3--3--------|
------------------------------|--------------------------------|
      éstas onzas               te entierran,
------------------------------|------------------------------|
------------------------------|------------------------------|
------------------------------|------------------------------|
--5--5------------------------|--5--5------------------------|
--3--3--3--3--3--3--6p3--4p3--|--3--3--3--3--3--3--4p3--4p3--|
------------------------------|------------------------------|
     y el mundo
------------------------------|--------------------------------|
------------------------------|--------------------------------|
------------------------------|--------------------------------|
--5--5------------------------|--5--5--------------6--6--6--6--|
--3--3--3--3--3--3--6p3--4p3--|--3--3--3--3--3--3--4--4--4--4--|
------------------------------|--------------------------------|
    desaparece                                desaparece

Solo(acustico):
--6-----------------|-------------------|--------------------|
--6-----------------|-------------------|--4-----4----4------|
--7-----------------|--8----------------|--3h5---3----0------|
--8-----------------|--8----------------|-----------------3--|
-(6)----------------|--6----------------|-----------------6--|
--------------------|-------------------|--------------------|

A#  C          G           A#          F
     estoy viviendo en un mundo construido por

   C     G           A#                F
mentiras que no son mias ... mias ... mias

C             G          A#      F
sangre fria, mente fria, campeón ...

C       G    A#      F
 campeón  ... campeón .


Tab by WarioRojas
mariopereirano@

Bueno ps ya saben, si tienen alguna tab
de esta excelente agrupacion Colombiana
no duden en compartirla...tengo otras en proceso,
cuando las termine las publicare.

Saludos! WarioRojas.

            
            
Suggest correction
Creating personal tab
Creating personal tab
You can edit any tab online and save it as your Personal.

You can edit, replace or remove any tab part or add personal notes – all changes will be seen only by you.

Personal tabs can be accessed anytime from any device, even offline.
Learn more »
Give kudos to tab author, rate the tab!
1 2 3 4 5
comments
print report bad tab
guest
Wanna post a correction for this tab? Suggest correction