Oops, an error
Loading. Please wait.

Round And Round Bass Tab

version 1
version 1

Whole song

Interactive

by Ratt
9,250 views 6 this week
no commentswrite comment
1 2 3 4 5
please rate
add to favorites
launch autoscroll
font size
0
reset
guitar tuner
Tab Pro tools
  • play this tab
  • loop segment
  • change instrument
  • show fretboard
  • metronome
×
Best way to learn
"Round And Round"
Autoscroll
slow
fast
+/-
esc
set tempo
stop
Contributor
Difficulty
Tuning
novice
D# G# C# F# A# D#
-------------------------------------------------------------------------------
			"Round and Round" bass tab --- RATT
-------------------------------------------------------------------------------

Tabbed By : [travis] 
 

Tuning: Eb Ab Db Gb (low to high)


Legend:

h = hammer on
p = pull off
x = muffled string
~ = vibrato / ring
/ = slide up
\ = slide down
() = note not picked

===========================
Intro:

Gb|------------------------------------------------------------------|
Db|------------------------------------------------------------------|
Ab|-------------------------0-2-3-5-3--3--3-3-3-3-3-3-3-3-3-3-5-5----|
Eb|-0--0--0-0-0-0-0-0-0-2-3----------------------------------------0-|

============================

Gb|---------------------------------------------------------------|
Db|---------------------------------------------------------------|
Ab|----------------------0-2-3-5-3--3--3-3-3-3-3-3-3-3-3-3-5-5----|
Eb|-0--0-0-0-0-0-0-0-2-3----------------------------------------0-|

End of Intro.
============================
Verse 1:

Gb|------------------------------------------------------------------------------|
Db|------------------------------------------------------------------------------|
Ab|------------------------------------------------------------------------------|
Eb|-0---0---0---0---0---0---0---0-2--3---3---3---3---3---3---3-5--0--0-0---0---0-|

============================

Gb|--------------------------------------------------|
Db|--------------------------------------------------|
Ab|--------------------------------------------------|
Eb|-0---0---0---0-2--3---3---3---3---3---3---3-5---0-|

============================

Gb|---------------------------------------------------------------|
Db|---------------------------------------------------------------|
Ab|---------------------------------------------------------------| x2
Eb|-0-0---0---0---0---0---0---0-2--3---3---3---3---3---3---3-5--0-|

End of Verse 1.
============================
Pre Chorus 1:

Gb|----------------------------------------------------------------------------------|
Db|----------------------------------------------------------------------------------|
Ab|-5---5---5-4--------------------------------------------0-2-3-4-5---5---5-4-------|
Eb|--------------5~~~5-5-5-5-5-4-2-0-0-0-0-2-4-2-0-0-0-2-4-----------------------5~~~|

============================

Gb|--------------------------/9~~~~~~~~~----------------4~~~~~-------|
Db|------------------------------------------------------------------|
Ab|-----------------------------------------2~~~~~~~~2/--------------|
Eb|-5-5-5-5-5-5-x-7~~~~~~~~5-------------2--------------------3-3--2-|

End of Pre Chorus 1.
=============================
Chorus 1:

Gb|---------------------------------------------------------------|
Db|---------------------------------------------------------------|
Ab|----------------------0-2-3-5-3--3--3-3-3-3-3-3-3-3-3-3-5-5----| x2
Eb|-0--0-0-0-0-0-0-0-2-3----------------------------------------0-|

End of Chorus 1.
=============================
Verse 2:

Gb|------------------------------------------------------------------------------|
Db|------------------------------------------------------------------------------|
Ab|------------------------------------------------------------------------------|
Eb|-0---0---0---0---0---0---0---0-2--3---3---3---3---3---3---3-5--0--0-0---0---0-|

============================

Gb|--------------------------------------------------|
Db|--------------------------------------------------|
Ab|--------------------------------------------------|
Eb|-0---0---0---0-2--3---3---3---3---3---3---3-5---0-|

============================

Gb|---------------------------------------------------------------|
Db|---------------------------------------------------------------|
Ab|---------------------------------------------------------------| x2
Eb|-0-0---0---0---0---0---0---0-2--3---3---3---3---3---3---3-5--0-|

End of Verse 2.
============================
Pre Chorus 2:

Gb|----------------------------------------------------------------------------------|
Db|----------------------------------------------------------------------------------|
Ab|-5---5---5-4--------------------------------------------0-2-3-4-5---5---5-4-------|
Eb|--------------5~~~5-5-5-5-5-4-2-0-0-0-0-2-4-2-0-0-0-2-4-----------------------5~~~|

============================

Gb|--------------------------/9~~~~~~~~~----------------4~~~~~-------|
Db|------------------------------------------------------------------|
Ab|-----------------------------------------2~~~~~~~~2/--------------|
Eb|-5-5-5-5-5-5-x-7~~~~~~~~5-------------2--------------------3-3--2-|

End of Pre Chorus 2.
=============================
Chorus 2:

Gb|---------------------------------------------------------------|
Db|---------------------------------------------------------------|
Ab|----------------------0-2-3-5-3--3--3-3-3-3-3-3-3-3-3-3-5-5----| 
Eb|-0--0-0-0-0-0-0-0-2-3----------------------------------------0-|

=============================

Gb|----------------------------------------------------------------|
Db|----------------------------------------------------------------|
Ab|----------------------0-2-3-5-3--3--3-3-3-3-3-3-3-3-3-3-3-------|
Eb|-0--0-0-0-0-0-0-0-2-3-------------------------------------0-3-5-|

End of Chorus 2.
=============================
Guitar Solo:

Gb|---------------------------------|
Db|---------------------------------|
Ab|---------------------------------| x3
Eb|-5-5-5-5-5-5-5-5-5-5-5-5-5-5-5-0-|

=============================

Gb|---------------------------------------------------------------------------------------------|
Db|---------------------------------------------------------------------------------------------|
Ab|---------------------------------------------------------------------------------------------|
Eb|-5--5-5-5-5-5-5-5-5-5-5-5--3---3-1--1-1-1-1-1-1-3-3-3-3-3-3-3-3-5-5-5-5-5-5-5-5-5--5--5-3--3-|

=============================

Gb|------------------------------------------------------------------------------------------------|
Db|------------------------------------------------------------------------------------------------|
Ab|-----------------------------------------------------------------------------------------------0|
Eb|1--1-1-1-1-1-1-3-3-3-3-3-3-3-3-5-5-5-5-5-5-5-5-5-5-5-5-5--5--3--3--1--1-1-1-1--1--0--0-0-0-1-3--|

=============================

Gb|-----------------------------------------------------|
Db|-----------------------------------------------------|
Ab|-3--3-3--3---5-3-2-2-x-2-2-2-x-2-2-2-----2-2-2-5-5---|
Eb|-----------------------------------------------------|

End of Guitar Solo.
==============================
Verse 3:

Gb|------------------------------------------------------------------------------|
Db|------------------------------------------------------------------------------|
Ab|------------------------------------------------------------------------------|
Eb|-0---0---0---0---0---0---0---0-2--3---3---3---3---3---3---3-5--0--0-0---0---0-|

==============================

Gb|--------------------------------------------------|
Db|--------------------------------------------------|
Ab|--------------------------------------------------|
Eb|-0---0---0---0-2--3---3---3---3---3---3---3-5---0-|

==============================

Gb|---------------------------------------------------------|
Db|---------------------------------------------------------|
Ab|------------------------------------------------------5--|
Eb|-7~~~~~~~~~55-5~~~~~~~~~~77-7~~~~~~~~~~~~~~7------7------|

End of Verse 3.
===============================
Chorus 3:

Gb|---------------------------------------------------------------|
Db|---------------------------------------------------------------|
Ab|----------------------0-2-3-5-3--3--3-3-3-3-3-3-3-3-3-3-5-5----|
Eb|-0--0-0-0-0-0-0-0-2-3----------------------------------------0-|

================================

Gb|----------------------------------------------------------------------|
Db|----------------------------------------------------------------------|
Ab|----------------------0-2-3-5-3--3--3-3-3-3-3-3-3-3-3-5---5-----------|
Eb|-0--0-0-0-0-0-0-0-2-3-----------------------------------------3-2-0~~~|

================================

Gb|-----------------------------------------------------------------|
Db|-----------------------------------------------------------------|
Ab|---------------------0-2-3-5-3--3--3-2-2-2-2-0-0-0--0------------|
Eb|-0--0--0-0-0-0-0-2-3-----------------------------------3-2---0~~~|

================================

Gb|-------------------------------------------------------------------------|
Db|-------------------------------------------------------------------------|
Ab|----------------------0-2-3-5-3--3--3-3-3-3-3-3-3-3-3-3--3---------------|
Eb|-0--0-0-0-0-0-0-0-2-3----------------------------------------5-4-2-0~~~~-|

=================================

Gb|---------------------------------------------------------------|
Db|---------------------------------------------------------------|
Ab|----------------------0-2-3-5-3--3--3-3-3-3-3-3-3-3-3-3-5-5----|
Eb|-0--0-0-0-0-0-0-0-2-3----------------------------------------0-|

==================================

Gb|-------------------------------------------------------------------------|
Db|-------------------------------------------------------------------------|
Ab|----------------------0-2-3-5-3--3--3-3-3-3-3-3-3-3-3-3--3---------------|
Eb|-0--0-0-0-0-0-0-0-2-3----------------------------------------5-4-2-0~~~~-

==================================
Keep repeating this while the song fades out.

Gb|-----------------------------------------------------------------|
Db|-----------------------------------------------------------------|
Ab|---------------------0-2-3-5-3--3--3-2-2-2-2-0-0-0--0------------|
Eb|-0--0--0-0-0-0-0-2-3-----------------------------------3-2---0~~~|



That's It.

Please Rate And Comment
Thanks.
[travis]




comments
We did not receive enough feedback on this tab! Please rate:
print report bad tab
1 2 3 4 5
I want to post or [tab]
guest
You may want to rate the tab now too:
select rating
Please do not post tabs as comments. Select "correction" instead!