Oops, an error
Loading. Please wait.

Wanted Man tab

version 1
version 1

Whole song

Interactive

by Ratt
10,363 views 21 this week
no commentswrite comment
1 2 3 4 5
1 last vote to show rating
add to favorites
×
Save as Personal and add changes to this tab that will be seen only by you. Learn more ›
×
You can save this tab as Personal to edit and correct it or add notes. All changes will be seen only by you. Learn more »
launch autoscroll
font size
0
reset
how to read this tab
guitar tuner
backing track
0:00
0:00
edit
Autoscroll
slow
fast
+/-
esc
set tempo
stop
-----------------------------------------------------------------------------
                            Wanted Man - Ratt (GUITAR)
                       
-----------------------------------------------------------------------------
Tabbed by: Scotto10

Tuning: Down 1/2 step

=============================================================================

Guitar 1



      H        E  E  E  E     W                   H        E  E  E  E   
D#||-----------------------|-------------------|-----------------------|
A#||-----------------------|-------------------|-----------------------|
F#||--------------9--9--9--|--L----------------|--L--------L--9--9--9--|
C#||--------------9--9--9--|--L----------------|--L--------L--9--9--9--|
G#||--------------7--7--7--|--L----------------|--L--------L--7--7--7--|
D#||--------------0--0--0--|--L----------------|--L--------L--0--0--0--|


  W                   Q     Q.      E  E  E     W                 
-------------------|-------------------------|-------------------|
-------------------|-------------------------|-------------------|
--L----------------|--L-------------9--9--9--|--L----------------|
--L----------------|--L-------------9--9--9--|--L----------------|
--L----------------|--L-----x\------7--7--7--|--L----------------|
--L----------------|--L-------------0--0--0--|--L----------------|


  H        E  E  E  E     W                   E  E  E  E  E  E  E  E   
-----------------------|-------------------|--------------------------|
-----------------------|-------------------|--------------------------|
--L--------L--9--9--9--|--L----------------|--L-----------------------|
--L--------L--9--9--9--|--L----------------|--L-----------------------|
--L--------L--7--7--7--|--L----------------|--L-----------------------|
--L--------L--0--0--0--|--L----------------|--L--0--3--0--5--3--2--0--|


  E  E  E  E  Q    E  E     Q    E  E  E  Q    E     Q    E  E  H         
-------------------------|------------------------|-------------7--------|
-------------------------|------------------------|-------------8--------|
-----9-----7--L-------6--|--L-------5--L----------|-------9-----7--------|
-----9-----7--L-------7--|--L-------5--L----------|-------9--------------|
-------------------------|------------------------|----------------------|
--L----------------------|----------------0----0--|--L-------------------|


                                              PM PM                            
  Q    E  E  E  E  E  E     Q    E  E  Q.     S  S     Q    E  E  E  E  E  E   
----------------------0--|--L-----------------------|-------------------------|
----------------------0--|--L-----------------------|-------------------------|
--6-------5--L-----------|-------9-----7------6--6--|--6-------5--L-----------|
--7-------5--L-----------|-------9-----7------7--7--|--7-------5--L-----------|
-------------------------|--------------------------|-------------------------|
----------------0--0--0--|--L-----------------------|----------------0--0--0--|


                                                 ^                    
  Q    E  E  H           Q    E  E  Q    Q       Q.     E  E  Q.      
-------------7--------|-----------------------|--0-------------------|
-------------8--------|-----------------------|--0------------0------|
-------9-----7--------|--6-------5--L---------|--7---------5---------|
-------9--------------|--7-------5--L---------|--5------7------------|
----------------------|-----------------------|--0-------------------|
--L-------------------|-----------------------|----------------------|


  ^                 ^                                                    
  Q.     E  Q    E  E     H.           E  E     E  E  E  E  E   Q.       
--0-----------------0--|--L------------------|--------------------------|
--0-----------------0--|--L------------------|--------------------------|
--4---------4-------7--|--L---------------7--|--------7-----7s--9\------|
--5------5----------9--|--L---------------5--|--------5-----5s--7\------|
--0-----------------0--|--L------------------|--0--0-----0--------------|
-----------------------|---------------------|--------------------------|


  ^                   ^                   ^                   
  W                   W                   H.           E  E   
--0----------------|--0----------------|--0------------------|
--0----------------|--0----------------|--0------------------|
--5----------------|--4----------------|--7---------------7--|
--7----------------|--5----------------|--9---------------5--|
--0----------------|--0----------------|--0------------------|
-------------------|-------------------|---------------------|


                                  PM PM PM PM PM PM         PM PM PM PM PM PM  
  E  E  E  E  E   Q.         Q    E  E  E  E  E  E     Q    E  E  E  E  E  E   
--------------------------|-------------------------|-------------------------|
--------------------------|-------------------------|-------------------------|
--------7-----7s--9\------|--5----------------------|--4----------------------|
--------5-----5s--7\------|--7----------------------|--5----------------------|
--0--0-----0--------------|--0----0--0--0--0--0--0--|--0----0--0--0--0--0-----|
--------------------------|-------------------------|----------------------7--|


       PM PM PM PM PM       PM PM    PM                                         
  Q    E  E  E  E  E  E     E  E  E  E  E   Q     E     Q    E  E  E  E  E  E   
-------------------------|---------------------------|----------------0--------|
-------------------------|---------------------------|----------0--------0-----|
--7-------------------7--|--------7-----7s--9\-------|-------5-----5--------5--|
--5-------------------5--|--------5-----5s--7\-------|-------------------------|
-------------------------|---------------------------|--0----------------------|
-------7--7--7--7--7-----|--7--7-----7---------------|-------------------------|


                      PM         PM PM PM PM PM     
  Q    E  E  E  E  E  E     Q    E  E  E  E  E  E   
-------0--------0--------|-------------------------|
----------0--------0-----|-------------------------|
-------------4-----------|--7-------------------7--|
--5----------------------|--5-------------------5--|
-------------------------|-------------------------|
----------------------7--|-------7--7--7--7--7-----|


  PM PM    PM                                          
  E  E  E  E  E   E   Q        E  E  E  E  Q    E  E   
----------------------------|-------------------------|
----------------------------|-----9-----7--L----------|
--------7-----7s--9---------|-----9-----7--L-------6--|
--------5-----5s--7---------|-----9-----7--L-------7--|
----------------------x\----|-------------------------|
--7--7-----7----------------|--0----------------0-----|


                                             PM PM                             
  Q    E  E  E  E  E  E     E  E  E  E  Q    E  E     Q    E  E  E  E  E  S S  
-------------------------|-------------------------|-------------------------|
-------------------------|--------9-----8----------|--------------------------|
--L-------5--L-----------|--------9-----7----------|--6-------5--L------------|
--L-------5--L-----------|--------9-----9----7--7--|--7-------5--L------------|
-------------------------|-------------------------|-------x------------------|
-------0--------0--0--0--|--L--0-------------------|----------------0--0--0-0-|


  Q    E  E  Q.     S S    Q    E  E  E  E  E  E     Q    E  E  Q.     E   
------------------------|-------------------------|-----------------------|
-------9-----7----------|-------------------------|-------9-----8---------|
-------9-----7------6-6-|--6-------5--L-----------|-------9-----7---------|
-------9-----7------7-7-|--7-------5--L-----------|-------9-----9---------|
------------------------|-------------------------|-----------------------|
--0---------------------|----------------0--0--0--|--0--------------------|


                          ^                      ^                 ^   
  Q    E  E  Q    Q       Q.     E  E  Q.        Q.     E  Q    E  E   
-----------------------|--0-------------------|--0-----------------0--|
-----------------------|--0------------0------|--0-----------------0--|
--6-------5--L---------|--7---------5---------|--4---------4-------7--|
--7-------5--L---------|--5------7------------|--5------5----------9--|
-----------------------|--0-------------------|--0-----------------0--|
-----------------------|----------------------|-----------------------|


                                                   ^                 
  H.           E  E     E  E  E  E  E   Q.         W                 
--L------------------|--------------------------|--0----------------|
--L------------------|--------------------------|--0----------------|
--L---------------7--|--------7-----7s--9\------|--5----------------|
--L---------------5--|--------5-----5s--7\------|--7----------------|
--L------------------|--0--0-----0--------------|--0----------------|
---------------------|--------------------------|-------------------|


  ^                   ^                                              
  W                   H.           E  E     E  E  E  E  E   Q.       
--0----------------|--0------------------|--------------------------|
--0----------------|--0------------------|--------------------------|
--4----------------|--7---------------7--|--------7-----7s--9\------|
--5----------------|--9---------------5--|--------5-----5s--7\------|
--0----------------|--0------------------|--0--0-----0--------------|
-------------------|---------------------|--------------------------|


       PM PM PM PM PM PM         PM PM PM PM PM PM         PM PM PM PM PM     
  Q    E  E  E  E  E  E     Q    E  E  E  E  E  E     Q    E  E  E  E  E  E   
-------------------------|-------------------------|-------------------------|
-------------------------|-------------------------|-------------------------|
--5----------------------|--4----------------------|--7-------------------7--|
--7----------------------|--5----------------------|--5-------------------5--|
--0----0--0--0--0--0--0--|--0----0--0--0--0--0-----|-------------------------|
-------------------------|----------------------7--|-------7--7--7--7--7-----|


  PM PM    PM                 ^                                   PM  
  E  E  E  E  E   Q     E     W                   H.           E  E   
---------------------------|--0----------------|--0------------------|
---------------------------|--0----------------|--0------------------|
--------7-----7s--9\-------|--5----------------|--4------------------|
--------5-----5s--7\-------|--7----------------|--5------------------|
---------------------------|--0----------------|--0------------------|
--7--7-----7---------------|-------------------|------------------7--|


       PM PM PM PM PM                      NH   NH   NH  
  Q    E  E  E  E  E  E     H        E     E    E    E   
-------------------------|------------------------------|
-------------------------|------------------------------|
--7-------------------7--|--------------<>12--<>7--<>5--|
--5-------------------5--|------------------------------|
-------------------------|------------------------------|
-------7--7--7--7--7-----|------------------------------|


  E   E  E  E  Q    E  E     Q    E  E  E  E  E  E     Q      E  E   Q.     E   
--------------------------|-------------------------|--------------------------|
-----11-----9--L----------|-------------------------|--------11-----10---------|
-----11-----9--L-------8--|--L-------7--L-----------|--------11------9---------|
-----11-----9--L-------9--|--L-------7--L-----------|--------11-----11---------|
--------------------------|-------------------------|--------------------------|
--------------------------|----------------2--2--2--|--L/----------------------|


  Q    E  E  E  E  E  E     E  E  E  E  Q    E  E     Q    E  E  E  E  E  E   
-------------------------|-------------------------|-------------------------|
-------------------------|-----9-----7--L----------|-------------------------|
--8-------7--L-----------|-----9-----7--L-------6--|--L-------5--L-----------|
--9-------7--L-----------|-----9-----7--L-------7--|--L-------5--L-----------|
-------------------------|-------------------------|-------------------------|
----------------0--0--0--|--L----------------------|----------------0--0--0--|


                  PM PM                                                      
  Q    E  E  Q    E  E     Q    E  E  Q     Q        Q    E  E  E  E  E  E   
------------------------|-------------------------|-------------------------|
-------9-----8----------|-------------------------|-------------------------|
-------9-----7----------|--6-------5--L-----------|-------------------------|
-------9-----9----7--7--|--7-------5--L-----------|--6----6--6--6--6--6-----|
------------------------|-------------------x\----|--4----4--4--4--4--4--0--|
--L---------------------|-------------------------|-------------------------|


  Q    E  E  E  E  E  E     E  E  E  E  E  E  E  E     E  E  E  E  E  E  E  E   
-------------------------|--------------------------|--------------------------|
-------------------------|--------------------------|--------------------------|
--2----------------------|--------------------------|--------------------------|
--2----2--2--2--2--2--4--|--L--4--4--4--4--4--4--4--|--4--4--4--4--4--4--4--6--|
--0----0--0--0--0--0--2--|--L--2--2--2--2--2--2--2--|--2--2--2--2--2--2--2--4--|
-------------------------|--------------------------|--------------------------|


  Q    E  E  E  E  Q        Q    E  E  E  E  E  E     E  E  E  E  E  E  E  E   
-------------------------|-------------------------|--------------------------|
-------------------------|-------------------------|--------------------------|
-------------------------|--2----------------------|--------------------------|
--6----6--6--6--6--6\----|--2----2--2--2--2--2-----|--------------------------|
--4----4--4--4--4--4\----|--0----0--0--0--0--0--4--|--L-----------------------|
-------------------------|----------------------2--|--L--2--2--2--2--2--2--2--|


  E  E  E  E  E  E  E   E       Q        E   E   E   E    Q      
----------------------------|-----------------------------------|
-----------------------15b--|---Lpbr-----L--12--15--15b---L~----|
----------------------------|-----------------------------------|
----------------------------|-----------------------------------|
----------------------------|-----------------------------------|
--2--0--3--0--5--3--2-------|-----------------------------------|


   |---6--|  |--6--|   |--6--|  |---6--|  |---6--|  |--6--|   |--6--|  |---6--| 
   S  S   S  S  S  S   S  S  S  S   S  S  S  S   S  S  S  S   S  S  S  S   S  S 
--12-----------12-----------12-----------12-----------12-----------12-----------
-----15p-12-------15p-12-------15p-12-------15p-12-------15p-12-------15p-12----
------------14-----------14-----------14-----------14-----------14-----------14-
--------------------------------------------------------------------------------
--------------------------------------------------------------------------------
--------------------------------------------------------------------------------


                                    |---3--|  
   E   E    S     E.    Q       E   S   S  S  
------15b---Lpbr--Lb----Lpb-----L---------12-|
--12-------------------------------12h-15----|
---------------------------------------------|
---------------------------------------------|
---------------------------------------------|
---------------------------------------------|


   |---6--|  |---6--|  |---6--|  |---6--|  |--6--|  |---6--|   |--6--|  |---6--|
   S   S  S  S  S   S  S   S  S  S  S   S  S  S  S  S   S  S   S  S  S  S  S   S
--15p-12----12------------------------------------------------------------------
---------15----15p-12-15p-12----12----------------------------------------------
-----------------------------15----15p-14-12----12------------------------------
---------------------------------------------14----14p-12-14p-12----12----------
-----------------------------------------------------------------14----14-13p-12
--------------------------------------------------------------------------------


   E   E   Q     E   E   E   E      Q     E   E    Q    E   E    
--------------------------------|--------15--17b---L----0--22b--|
--------------------------------|-------------------------------|
--------------------------------|-------------------------------|
--------------------------------|-------------------------------|
--10--12--12-----L--12--10------|-------------------------------|
----------------------------12--|---L---------------------------|


   Q     E   E    E   E    E   E       E   E    E   Q      Q.      
---L----22--22b--22--22b--22--22b--|--22--22b--22--22b-----L------|
-----------------------------------|------------------------------|
-----------------------------------|------------------------------|
-----------------------------------|------------------------------|
-----------------------------------|------------------------------|
-----------------------------------|------------------------------|


                                                                       PM PM  
  E  E  E  E  Q    E  E     Q    E  E  E  E  E  E     E  E  E  E  Q    E  E   
-------------------------|-------------------------|-------------------------|
-----9-----7--7----------|-------------------------|--------9-----8----------|
-----9-----7--7-------6--|--L-------5--L-----------|--------9-----7----------|
-----9-----7--7----7--7--|--L-------5--L-----------|--------9-----9----7--7--|
-------------------------|-------------------------|-------------------------|
--0----------------------|----------------0--0--0--|--0----------------------|


                                              PM PM                             
  E  E  E  E  E  E  E  E     E  E  E  E  Q    E  E     E  E  E  E  E  E  E  E   
--------------------------|-------------------------|--------------------------|
--------------------------|--------9-----7----------|--------------------------|
--6--6-----5--L--------9--|--L-----9-----7----------|--6--6-----5--L-----------|
--7--7-----5--L--------9--|--L-----9-----7----7--7--|--7--7-----5--L-----------|
-----------------------7--|--L----------------------|--------------------------|
-----------------0--0--0--|--L--0-------------------|-----------------0--0--0--|


                  PM PM                                                       
  Q    E  E  Q    E  E     E  E  E  E  E  E  E  E     E  E  E  E  Q    E  E   
------------------------|--------------------------|-------------------------|
-------9-----8----------|--------------------------|-----9-----7--7----------|
-------9-----7----------|--6-----------------------|-----9-----7--7-------6--|
-------9-----9----7--7--|--7-----------------------|-----9-----7--7-------7--|
------------------------|--------------------------|-------------------------|
--L---------------------|-----0--3--0--5--3--2--0--|--L----------------------|


                                            PM PM                             
  Q    E  E  E  E  E  E     Q    E  E  Q    E  E     E  E  E  E  E  E  E  E   
-------------------------|------------------------|--------------------------|
-------------------------|-------9-----8----------|--------------------------|
--6-------5--L-----------|-------9-----7----------|--6--6-----5--L-----------|
--7-------5--L-----------|-------9-----9----7--7--|--7--7-----5--L-----------|
-------------------------|------------------------|--------------------------|
----------------0--0--0--|--L---------------------|-----------------0--0--0--|


                  PM PM PM                                               PM PM  
  Q    E  E  Q    S  S  E     E  E  E  E  E  E  E  E     Q    E  E  Q    E  E   
---------------------------|--------------------------|------------------------|
-------9-----7-------------|--------------------------|-------9-----8----------|
-------9-----7-------------|--6--6-----5--L-----------|-------9-----7----------|
-------9-----7----7--7--7--|--7--7-----5--L-----------|-------9-----9----7--7--|
---------------------------|--------------------------|------------------------|
--L------------------------|-----------------0--0--0--|--L---------------------|


  E  E  E  E  H           H        E  E  E  E     E  E  E  E  Q    E  E   
-----------------------|-----------------------|-------------------------|
-----------------------|-----------------------|-------------------------|
--6--6-----5--L--------|--L--------L-----------|----------------------9--|
--7--7-----5--L--------|--L--------L-----------|-----------2----------9--|
-----------3--L--------|--L--------L-----------|-----------2----------7--|
-----------------------|--------------0--3--0--|--5--3--2--0----------0--|


  W                   H        E  E  E  E     
-------------------|------------------------||
-------------------|------------------------||
--L----------------|--L---------------------||
--L----------------|--L-----------9--9--9\--||
--L----------------|--L-----------7--7--7\--||
--L----------------|--L-----------0--0--0---||



=============================================================================
=============================================================================


Guitar 2



      H        E  E  E  E     E  E  E  E  Q    E  E     Q    E  E  E  E  E  E   
D#||-----------------------|-------------------------|-------------------------|
A#||-----------------------|-----9-----7--L----------|-------------------------|
F#||-----------------------|-----9-----7--L-------6--|--L-------5--L-----------|
C#||-----------------------|-----9-----7--L-------7--|--L-------5--L-----------|
G#||-----------------------|-------------------------|-------------------------|
D#||--------------0--0--0--|--L----------------0-----|-------0--------0--0--0--|


                   PM PM                                                      
  E  E  E  E  Q    E  E     Q    E  E  E  E  E  E     E  E  E  E  Q    E  E   
-------------------------|-------------------------|-------------------------|
--------9-----8----------|-------------------------|-----9-----7--L----------|
--------9-----7----------|--6-------5--L-----------|-----9-----7--L-------6--|
--------9-----9----7--7--|--7----x--5--L-----------|-----9-----7--L-------7--|
-------------------------|-------------------------|-------------------------|
--L--0-------------------|----------------0--0--0--|--L----------------0-----|


                                             PM PM                             
  Q    E  E  E  E  E  E     E  E  E  E  Q    E  E     E  E  E  E  E  E  E  E   
-------------------------|-------------------------|--------------------------|
-------------------------|--------9-----8----------|--------------------------|
--L-------5--L-----------|--------9-----7----------|--6-----------------------|
--L-------5--L-----------|--------9-----9----x--x--|--7-----------------------|
-------------------------|-------------------x--x--|--------------------------|
-------0--------0--0--0--|--L--0-------------------|-----0--3--0--5--3--2--0--|


                                                 PH   
  E  E  E  E  Q    E  E     Q    E  E  E  Q      E    
-------------------------|---------------------------|
-----9-----7--L----------|---------------------------|
-----9-----7--L-------6--|--L-------5--L-------------|
-----9-----7--L-------7--|--L-------5--L-------<>2~--|
-------------------------|---------------------------|
--L----------------------|----------------0----------|


                     PM PM                                              PM PM  
  E  S  S E  E  Q    E  E     Q    E  E  E  E  E  E     Q    E  E  Q    E  E   
---------------------------|-------------------------|------------------------|
----------9-----8----------|----------------------9--|--L----9-----7----------|
----------9-----7----------|--6-------5--L--------9--|--L----9-----7----------|
--L-------9-----9----x--x--|--7-------5--L--------9--|--L----9-----7----x--x--|
---------------------x--x--|-------------------------|------------------x--x--|
-----5s-7------------------|----------------0--0-----|------------------------|


                                            PM PM                          
  Q    E  E  E  E  E  E     Q    E  E  Q    E  E     Q    E  E  Q    Q     
-------------------------|------------------------|-----------------------|
-------------------------|-------9-----8----------|-----------------------|
--6-------5--L-----------|-------9-----7----------|--6-------5--L---------|
--7-------5--L-----------|-------9-----9----7--7--|--7-------5--L---------|
-------------------------|------------------------|-----------------------|
----------------0--0--0--|--L---------------------|-----------------------|


  ^                   ^                   ^                   
  W                   W                   H.           E  E   
--0----------------|--0----------------|--0------------------|
--0----------------|--0----------------|--0------------------|
--5----------------|--4----------------|--7---------------7--|
--7----------------|--5----------------|--9---------------5--|
--0----------------|--0----------------|--0------------------|
-------------------|-------------------|---------------------|


  Q    E  E  E   Q.         E  E  E  E  E  E  E  E     E  E  E  E  E  E  E  E   
-------------------------|-----------------0--------|--------0--------0-------|
-------------------------|--------------------0-----|--------------0-----0----|
-------7-----7s--9\------|--------5-----5--------5--|-----------4-------------|
-------5-----5s--7\------|-----7-----7--------------|-----5-----------------5-|
-------------------------|--0-----------------------|-------------------------|
-------------------------|--------------------------|-------------------------|


  E  E  E  E  E  E  E  E     Q    E  E  E   E   Q      
--------0--------0--------|---------------------------|
-----0-----0--------------|---------------------------|
--------------7-----7--0--|-------7-----7s--9---------|
--------------------------|-------5-----5s--7---------|
--------------------------|---------------------x\----|
--------------------------|---------------------------|


       PM PM PM PM PM PM         PM PM PM PM PM PM         PM PM PM PM PM     
  Q    E  E  E  E  E  E     Q    E  E  E  E  E  E     Q    E  E  E  E  E  E   
-------------------------|-------------------------|-------------------------|
-------------------------|-------------------------|-------------------------|
--5----------------------|--4----------------------|--7-------------------7--|
--7----------------------|--5----------------------|--5-------------------5--|
-------0--0--0--0--0--0--|-------0--0--0--0--0-----|-------------------------|
-------------------------|----------------------7--|-------7--7--7--7--7-----|


  PM PM    PM                                                      
  E  E  E  E  E   E  Q       W                   W                 
--------------------------|-------------------|-------------------|
--------------------------|-------------------|-------------------|
--------7-----7s--9-------|-------------------|-------------------|
--------5-----5s--7-------|-------------------|-------------------|
--------------------------|-------------------|-------------------|
--7--7-----7--------------|-------------------|-------------------|


  W                   W                   E  E  E  E  Q    E  E   
-------------------|-------------------|-------------------------|
-------------------|-------------------|-----9-----7--L----------|
-------------------|-------------------|-----9-----7--L-------6--|
-------------------|-------------------|-----9-----7--L-------7--|
-------------------|-------------------|-------------------------|
-------------------|-------------------|--0----------------0-----|


                                             PM PM                            
  Q    E  E  E  E  E  E     E  E  E  E  Q    E  E     Q    E  E  E  E  E  E   
-------------------------|-------------------------|-------------------------|
-------------------------|--------9-----8----------|----------------------9--|
--L-------5--L-----------|--------9-----7----------|--6-------5--L--------9--|
--L-------5--L-----------|--------9-----9----7--7--|--7-------5--L--------9--|
-------------------------|-------------------------|-------x-----------------|
-------0--------0--0--0--|--L--0-------------------|----------------0--0-----|


  Q    E  E  Q    E  E     Q    E  E  E  E  E  E     E  E  E  E  Q    E  E   
------------------------|-------------------------|-------------------------|
--9----9-----7----------|-------------------------|--------9-----8----------|
--9----9-----7-------6--|--L-------5--L-----------|--------9-----7----------|
--9----9-----7-------7--|--L-------5--L-----------|--------9-----9----x--x--|
------------------------|-------------------------|-------------------------|
------------------0-----|-------0--------0--0--0--|--L--0-------------------|


                          ^                   ^                 
  Q    E  E  Q    Q       W                   W                 
-----------------------|--0----------------|--0----------------|
-----------------------|--0----------------|--0----------------|
--6-------5--L---------|--5----------------|--4----------------|
--7-------5--L---------|--7----------------|--5----------------|
-----------------------|--0----------------|--0----------------|
-----------------------|-------------------|-------------------|


  ^                                                                        
  H.           E  E     Q    E  E  E   Q.         E  E  E  E  E  E  E  E   
--0------------------|-------------------------|-----------------0--------|
--0------------------|-------------------------|--------------------0-----|
--7---------------7--|-------7-----7s--9\------|--------5-----5--------5--|
--9---------------5--|-------5-----5s--7\------|-----7-----7--------------|
--0------------------|-------------------------|--0-----------------------|
---------------------|-------------------------|--------------------------|


  E  E  E  E  E  E  E  E     E  E  E  E  E  E  E  E   
--------0--------0--------|--------0--------0--------|
--------------0-----0-----|-----0-----0--------------|
-----------4--------------|--------------7-----7--0--|
-----5-----------------5--|--------------------------|
--------------------------|--------------------------|
--------------------------|--------------------------|


                                   PM PM PM PM PM PM         PM PM PM PM PM PM  
  Q    E  E  E   E   Q        Q    E  E  E  E  E  E     Q    E  E  E  E  E  E   
---------------------------|-------------------------|-------------------------|
---------------------------|-------------------------|-------------------------|
-------7-----7s--9---------|-------------------------|--4----------------------|
-------5-----5s--7---------|--7----------------------|--5----------------------|
---------------------x\----|-------0--0--0--0--0--0--|-------0--0--0--0--0-----|
---------------------------|-------------------------|----------------------7--|


       PM PM PM PM PM       PM PM    PM                                  
  Q    E  E  E  E  E  E     E  E  E  E  E   E  Q       W                 
-------------------------|--------------------------|-------------------|
-------------------------|--------------------------|-------------------|
--7-------------------7--|--------7-----7s--9-------|-------------------|
--5-------------------5--|--------5-----5s--7-------|-------------------|
-------------------------|--------------------------|-------------------|
-------7--7--7--7--7-----|--7--7-----7--------------|-------------------|


  W                   W                   W                 
-------------------|-------------------|-------------------|
-------------------|-------------------|-------------------|
-------------------|-------------------|-------------------|
-------------------|-------------------|-------------------|
-------------------|-------------------|-------------------|
-------------------|-------------------|-------------------|


    NH                    NH                                              
    W                     W                    Q       E  E   Q    E  E   
---------------------|---------------------|-----------------------------|
--<>7----------------|--<>L----------------|----------11-----10----------|
---------------------|---------------------|----------11------9-------8--|
---------------------|---------------------|----------11-----11-------9--|
---------------------|---------------------|-----------------------------|
---------------------|---------------------|--(2)/-----------------------|


  Q    E  E  E  E  E  E     E  E  E  E  Q    E  E     Q    E  E  E  E  E  E   
-------------------------|-------------------------|-------------------------|
-------------------------|-----9-----7--L----------|-------------------------|
--L-------7--L-----------|-----9-----7--L-------6--|--L-------5--L-----------|
--L-------7--L-----------|-----9-----7--L-------7--|--L-------5--L-----------|
-------------------------|-------------------------|-------------------------|
----------------0--0--0--|--L----------------------|----------------0--0--0--|


  Q    E  E  Q    Q       E  E  E  E  Q    E   E    
-----------------------|---------------------------|
-------9-----8---------|---------------------------|
-------9-----7---------|--6--6-----5--L-------11b--|
-------9-----9---------|--7--7-----5--L------------|
-----------------------|---------------------------|
--L--------------------|---------------------------|


                    |---3--|                                        
   H           Q    S   S  S  E      Q      S  S  E   Q     E   E   
---------------------------------|---------------------------------|
-----------------------------12--|---L~----10p-9-------------------|
---Lpb---------L----9h-11p-9-----|---------------11---L~-------11--|
---------------------------------|---------------------------------|
---------------------------------|---------------------------------|
---------------------------------|---------------------------------|


       |---3--|     |--3--|     |--3--|                                 
   E   S   S  S  E  S  S  S  E  S  S  S  Q       H        E   E  E  E   
----------------------------------------------|------------------------|
----------------------------------------------|------------------------|
---L---9h-11p-9s-8--8h-9p-8s-6--6h-8p-6s-4----|--L--------L------4--6--|
----------------------------------------------|--------------/6--------|
----------------------------------------------|------------------------|
----------------------------------------------|------------------------|


           |--3--|             |--3-|        |--3-|            |--3--|  
  H        S  S  S E  Q        S S  S E  E   S S  S Q     E    S  S  S  
----------------------------|------------------------------------------|
-------------------5--Lh----|--4------5--Lp--4-------------------------|
--L--------4h-6p-4----------|----6p-4----------6p-4-4~-----------------|
----------------------------|--------------------------------/11-13-14-|
----------------------------|------------------------------------------|
----------------------------|------------------------------------------|


   T   T   T  T   T   T  T   T  T  T   T   T  T   T   T   T   T   T  T   T   T  
------------------------12h-14-16------------12h-14h-16p-14p-12s-11-14p-12p-11s-
-------------12h-14h-16-----------12h-14h-16------------------------------------
--11h-13h-15--------------------------------------------------------------------
--------------------------------------------------------------------------------
--------------------------------------------------------------------------------
--------------------------------------------------------------------------------


   7  7   7   7   7   7  7  7  7  7 7  7  7  7 ---|--3--|  |-3|        
   S  S   S   S   S   S  S  S  S  S S  S  S  S  S.S  S  S  S  T E  E   
--11------------------------------------------------------------------|
-----14p-12p-11h-12p-11s-9-11p-9----9---------------------------------|
---------------------------------11---11p-9----11-9----------------9--|
--------------------------------------------11------11p-9-------------|
----------------------------------------------------------11p-9-L-----|
----------------------------------------------------------------------|


                                                                       PM PM  
  E  E  E  E  Q    E  E     Q    E  E  E  E  E  E     E  E  E  E  Q    E  E   
-------------------------|-------------------------|-------------------------|
-----9-----7--L----------|-------------------------|--------9-----8----------|
--L--9-----7--L-------6--|--L-------5--L-----------|--------9-----7----------|
-----9-----7--L-------7--|--L-------5--L-----------|--------9-----9----7--7--|
-------------------------|-------------------------|-------------------------|
-------------------0-----|-------0--------0--0--0--|--L--0-------------------|


  Q    E  E  E  S S E  S S    Q    E  E  Q    E  E     Q    E  E  E  Q    E   
---------------------------|------------------------|------------------------|
---------------------------|-------9-----7----------|------------------------|
--6-------5--L---------9-9-|--9----9-----7-------6--|--L-------5--L----------|
--7-------5--L---------9-9-|--9-------9--7-------7--|--L-------5--L----------|
-----------------------7-7-|--7---------------------|------------------------|
----------------0-0-0------|------------------------|----------------0----0--|


                   PM PM                                                       
  E  E  E  E  Q    E  E     E  E  E  E  E  E  E  E     E  E  E  E  Q    E  E   
-------------------------|--------------------------|-------------------------|
--------9-----8----------|--------------------------|-----9-----7--7----------|
--------9-----7----------|--6-----------------------|-----9-----7--7-------6--|
--------9-----9----7--7--|--7-----------------------|-----9-----7--7----7--7--|
-------------------------|--------------------------|-------------------------|
--0--0-------------------|-----0--3--0--5--3--2--0--|--L----------------------|


  Q    E  E  E  Q    E     Q        H.              
------------------------|-------14g14pb------------|
------------------------|--------------------------|
--L-------5--L----------|--------------------------|
--L-------5--L----------|--------------------------|
------------------------|--------------------------|
----------------0----0--|--------------------------|


               W                                                        NH  
   |----3---|                                                               
   E    E   E  H        Q        W                   H        Q    E    E   
--12p--10p--0--0--------------|-------------------|------------------------|
------------------------------|-------------------|-------------------<>5--|
------------------------x\----|-------------------|------------------------|
------------------------------|-------------------|------------------------|
------------------------------|-------------------|------------------------|
------------------------------|-------------------|------------------------|


    \0                    /0         NH                               
    W                     H          Q     Q        W                 
---------------------|---------------------------|-------------------|
--<>L----------------|--<>L--------<>L-----------|-------------------|
---------------------|---------------------------|-------------------|
---------------------|---------------------------|-------------------|
---------------------|---------------------------|-------------------|
---------------------|---------------------x\----|-------------------|


                           NH   NH   NH  NH    NH  NH       
  W                   E    E    E    S   S S   S   E  Q     
-------------------|-----<>7-------------------------------|
-------------------|----------<>7--------------------------|
-------------------|---------------<>5-----------<>5--L----|
-------------------|-------------------<>5-L-<>5-----------|
-------------------|---------------------------------------|
-------------------|---------------------------------------|


         NH    NH  \4                            
  Q      E     E   H           W                 
------------<>12---L--------|-------------------|
-------<>7------------------|-------------------|
--L-------------------------|-------------------|
----------------------------|-------------------|
----------------------------|-------------------|
----------------------------|-------------------|


                 |--6--|   |---6--|  
  H        Q     S  S  S   S   S  S  
----------------------15h-19p-15----|
----------------17-19------------17-|
------------------------------------|
------------------------------------|
------------------------------------|
------------------------------------|


   |---6---|  |--6--|   |---6--|   |---6--|  |------7-----|   |-----7-----|   7 
   S   S   S  S  S  S   S   S  S   S   S  S  S  S  S  S   S   S  S  S  S  S   S 
--15h-19p-15----15------------15h-19p-15----15-------15h-19p-15----15-----------
-------------19----17h-19p-17------------19----17-19------------17----17-19p-15-
--------------------------------------------------------------------------------
--------------------------------------------------------------------------------
--------------------------------------------------------------------------------
--------------------------------------------------------------------------------


   |---6--|  |---6--|                                             
   S   S  S  S  S   S   S  S  H          E      W                 
--------------------------------------------|--------------------|
--15p-12----12------------------------------|--------------------|
---------15----15p-14p-12----12~---------L--|---L----------------|
--------------------------14----------------|--------------------|
--------------------------------------------|--------------------|
--------------------------------------------|--------------------|


   Q.      E  Q    E  E     W                   H        E  E  E  E     
-------------------------|-------------------|------------------------||
-------------------------|-------------------|------------------------||
-------------------------|-------------------|------------------------||
-------------------------|-------------------|--------------9--9--9\--||
----------------------2--|--L----------------|--L-----------7--7--7\--||
---x\------0----------0--|--L----------------|--L-----------0--0--0---||




Duration Legend
---------------
W - whole
H - half
Q - quarter
E - 8th
S - 16th
T - 32nd
X - 64th
. - note dotted
|-n-|  - n-tuplets


Tablature Legend
----------------
L - tied note
x - dead note
g - grace note
(n) - ghost note
> - accentuded note
NH - natural harmonic
AH - artificial harmonic
TH - tapped harmonic
SH - semi harmonic
PH - pitch harmonic
h - hammer on
p - pull off
b - bend
br - bendRelease
pb - preBend
pbr - preBendRelease
brb - bendReleaseBend
\n/ - tremolo bar dip
\n - tremolo bar dive
-/n - tremolo bar Release up
/n\ - tremolo bar inverted dip
/n - tremolo bar return
-\n - tremolo bar Release down
S - shift slide
s - legato slide
/ -  slide into from below or out of upwards
\ -  slide into from above or out of downwards
~ - vibrato
W - wide vibrato
tr - trill
TP - tremolo picking
T - tapping
S - slap
P - pop
< - fade in
^ - brush up
v - brush down
Suggest correction
Creating personal tab
Creating personal tab
You can edit any tab online and save it as your Personal.

You can edit, replace or remove any tab part or add personal notes – all changes will be seen only by you.

Personal tabs can be accessed anytime from any device, even offline.
Learn more »
Give kudos to tab author, rate the tab!
1 2 3 4 5
comments
print report bad tab
guest
You may want to rate the tab now too:
select rating
Wanna post a correction for this tab? Suggest correction