Oops, an error
Loading. Please wait.

Way Cool Jr tab

version 1
version 1

Whole song

Interactive

by Ratt
337 views 27 this week
no commentswrite comment
1 2 3 4 5
3 more votes to show rating
add to favorites
×
Save as Personal and add changes to this tab that will be seen only by you. Learn more ›
×
You can save this tab as Personal to edit and correct it or add notes. All changes will be seen only by you. Learn more »
launch autoscroll
font size
0
reset
how to read this tab
guitar tuner
edit
Autoscroll
slow
fast
+/-
esc
set tempo
stop
Author
Difficulty
[Intro]

e|----------------------------|-----------------|
B|----------------------------|-----------------|
G|--2pb-2b-2b-2b-2b-2b-2b-0---|---------2pb-0---| Second section x4
D|--------------------------2-|-2-2-0-2-------2-|
A|----------------------------|-----------------|
E|----------------------------|-----------------|

Improvise a quick bit on open E

[Verse]
e|-----------------|                        |------------0-|
B|-----------------|                        |------------0-|
G|---------2pb-0---| Last time I like to do |--------------|
D|-2-2-0-2-------2-|                        |-2-2-0-2------|
A|-2-2-0-2-------2-|                        |-2-2-0-2------|
E|-0-0---0-------0-|                        |-0-0---0-3b---|

"Where is all the action in this town?"

e|-------------------|     |-------------------|
B|-------------------|     |-------------------|
G|-1-2-4-6-4-2-1-1-0-|  or |-1-2-4-4-4-2-1-1-0-| if you think that sounds better
D|-2-4-5-7-5-4-2-2-0-|     |-2-4-5-7-5-4-2-2-0-|
A|-------------------|     |-------------------|
E|-------------------|     |-------------------|

[Pre-Chorus]
e|---------------------------------|
B|---------------------------------|
G|-4-4-4-4-4-----------------------| play to the rhythm
D|-4-4-4-4-4-7-7-7-7-7-5-5-5-5-5-2-|
A|-2-2-2-1-1-7-7-7-7-7-5-5-5-5-5-2-|
E|-----------5-5-5-4-4-3-3-3-2-2-0-|

"Way... Cool Jr..."

e|-----------|
B|-3---------|
G|-2---------|
D|-0-------2-|
A|---------2-|
E|---3b-3b-0-|

After the "way cool Jr," solo rhythm goes to:

e|-----------|
B|-----------|
G|----9------| play to the rhythm
D|-11-9-11-7-|
A|-11-7-11-7-|
E|-9----9--5-|

[Solo]
This solo is definitely not perfect.  The breaks (vertical lines) should line up with pauses in the solo

e|----12-12p9----9---------------------|------------------------------------------|------9-|
B|------------12---12p9-12p9----9------|-9-9b-------------------------------------|----9---|
G|-9b------------------------11---11p9-|------11p9-11bp9-11p9----9b------11b-9----|-9b-----|
D|-------------------------------------|----------------------11----11p9-------11-|--------|
A|-------------------------------------|------------------------------------------|--------|
E|-------------------------------------|------------------------------------------|--------|

e|-12p9----9---------------------------------------------------------|
B|------12---12p9-12p9----9------------------------------------------|
G|---------------------12---12p9h11p9----9---------------------------|
D|------------------------------------11---11p9-11p9----9------------|
A|---------------------------------------------------11---11p9p7h9p7-|
E|-------------------------------------------------------------------|

e|-----------------------9-12p9----9----------------------10b------|
B|------------------------------12---12p9---------------------7b-5-|
G|---------6-8-9-9p8-11b------------------12p11p9h11p9-------------|
D|-7-7-9-9---------------------------------------------11----------|
A|-----------------------------------------------------------------|
E|-----------------------------------------------------------------|

One more section of the "way cool Jr" part, then quietly play the intro part to fade

Oh
Oh

New kid in town
Got fancy clothes
Old T-Bird car, baby
And you can tell he knows
He said, "Where is all the action in this town?"

Starts working on the women
Comes on real slick
Heard enough about sin, girl
Gonna make it stick
Hey! What makes him so special anyhow?

She said, "So good lookin', that's a fact
Steel guitar slung across his back"
The girls all know he's Way Cool Jr.

Check him out on his good side

Heard he came from Memphis
Somewhere down south
Started hangin' with the blues crowd
That's how he got that crazy sound
What is all this talkin' goin' round?

She said, "So good lookin', turns me on"
Out all night, keeps me up 'til dawn"
The girls all know he's Way Cool Jr.

You know you can't have fire without the flame
Can't keep the fortune without the fame
That's how he makes it when he's on his own

Way Cool Jr.
He's gonna live it up or never live it down
Way Cool Jr.
He's the hottest thing to ever hit this town

Go man go

She said, "So good lookin' and that's a fact
Steel guitar scratched off the back"
Everybody knows it's Way Cool Jr.

You know you can't have fire without the flame
Can't keep the fortune without the fame
That's how he makes it when he's on his own

Way Cool Jr.
Always comin' 'round now and then
Way Cool Jr.
He's gonna live it up or never live it down
Way Cool Jr.

Way Cool Jr.



************************************

| b   Bend
| pb  Pre-bend
| p   Pull-off
| h   Hammer-on
|     
| Last time I like to do 
| bp  
| or  

************************************
Suggest correction
Creating personal tab
Creating personal tab
You can edit any tab online and save it as your Personal.

You can edit, replace or remove any tab part or add personal notes – all changes will be seen only by you.

Personal tabs can be accessed anytime from any device, even offline.
Learn more »
Give kudos to tab author, rate the tab!
1 2 3 4 5
comments
print report bad tab
guest
You may want to rate the tab now too:
select rating
Wanna post a correction for this tab? Suggest correction