Oops, an error
Loading. Please wait.

El Blues Del Perdedor tab

20 views 1 this week
no commentswrite comment
1 2 3 4 5
3 more votes to show rating
add to favorites
×
Save as Personal and add changes to this tab that will be seen only by you. Learn more ›
×
You can save this tab as Personal to edit and correct it or add notes. All changes will be seen only by you. Learn more »
launch autoscroll
font size
0
reset
how to read this tab
guitar tuner
edit
Autoscroll
slow
fast
+/-
esc
set tempo
stop
Intro
  E
e---0-------0-------0-------0-------0----
B----------------------------------------
G-1---1---2---2---4---4---3---3---2------
D----------------------------------------
A-2-------4-------5-------4-------3------

   E   F#m        A                       G#m            A
e------------------------------------------------------------
B-7/9-7-5---5---7/9p7h9---12-14---7/9-7-5-7/9-12--7/9/7-5-7--
G----------4-4-----------------------------------------------

       F#m         B7      B7               E
e----------------------------------------------
B-------5------5-------12/10-------------------
G-4-6-4----6-4---------13/11----6p4------------
D-----------------5/9---------------6-4--------
A----------------------------------------7-6/7-

E                 F#m
Se olvidó de su guitarra,
     G#m           F#m
y guardó aquella canción,
E                 F#m
que una noche desvelada,
     G#m       F#m
le dictó su corazón.

A              G#m
Por tener una vida segura,
   F#m              E
renunció a su vocación,
A                  G#m
y detrás de una corbata oscura,
     F#m             B7
se le va, la inspiración.


Cuando muere la semana
y la luna suple al sol,
la bohemia le reclama,
                       A
la canción que no escribió.

F#m                G#m
Es tan fácil volver al pasado
      F#m              E
y aferrarse a una ilusión,
lamentarse de un amor frustrado
                      B7
y de lo, que no sucedió.

CORO 1
            E              F#m
Y se oye su voz con tanto dolor,
              G#m            F#m
cantando aquel blues del perdedor,
             E                F#m
que dice que no, no hay nada peor,
              G#m          A
que no hacerle caso al corazón.

CORO 2
      A#dim         C#7
Es tan cruda la verdad,
      F#m        Am
cuando deja de cantar,
          A
cuando el lunes,
        B7        E
hay que ir a trabajar.

SOLO


Cuando el corazón nos habla,
hay que darle la razón,
porque la razón engaña,
                  A
pero nunca el corazón.

Por tener una vida segura...

CORO 1 (2)

CORO 2

FINAL

hay que ir a trabajar,
hay que ir a trabajar.

e---0-------0-----
B-----------------
G-1---1---2-------
D-----------------
A-2-------4-------           (3)


A#dim   567575
Suggest correction
Creating personal tab
Creating personal tab
You can edit any tab online and save it as your Personal.

You can edit, replace or remove any tab part or add personal notes – all changes will be seen only by you.

Personal tabs can be accessed anytime from any device, even offline.
Learn more »
Give kudos to tab author, rate the tab!
1 2 3 4 5
comments
print report bad tab
guest
Wanna post a correction for this tab? Suggest correction