Oops, an error
Loading. Please wait.

El Hombre De Hojalata chords

version 2
version 2

Whole song

39 views 1 this week
no commentswrite comment
1 2 3 4 5
3 more votes to show rating
add to favorites
×
Save as Personal and add changes to this tab that will be seen only by you. Learn more ›
×
You can save this tab as Personal to edit and correct it or add notes. All changes will be seen only by you. Learn more »
launch autoscroll
font size
0
reset
transpose
0
reset
simplify chords
display chords
guitar tuner
edit
Autoscroll
slow
fast
+/-
esc
set tempo
stop
Strumming
There is no strumming pattern for this song yet. and get +5 IQ
E--------0------0-------0---------------0-----0-----0-----------
B------3---3-------3------3-----------3---3-----3-----3---------
G----2-------2--------2-----2---------------2-----2-----2-------
D--0------------------------------------------------------------
A---------------------------------------------------------------
E------------------------------0--2-----------------------------


E------------0-------0--------0-----------------0------0--
B---------3----3--------3-------3-------------3---3----3--
G-----------------0--------0-------0--------0-------0--0--
D-----------------------------------------2------------2--
A---------------------------------------0--------------0--
E--2--3---------------------------------------------------


D9
 Yo era el hombre de hojalata
 D/F#
 buscando al mago de OZ
   G                 D/F#
 porque no sentia nada
  Em             A7
 y queria un corazon


 Era mas inteligente
 que el espantapajaros
 era mucho mas valiente
                           D
 que mi amigo el gran leon

C             G          D
 Pero eso de nada me sirvio
C              G            A7
 Aquel dia en que ella se marcho

               D
 Y hoy soy un tonto
    F#m7            G    A7
 el tonto mas cobarde
              D
 por no entregarme
     F#m7         G    A7
 por no saber amarle
            Bm7      F#m        Emaj - E7
 y que ironia, su adios me desbarata
            G
 despues de ser
            A7                D    D/F#  G A7
 el hombre fuerte... de hojalata


 por sentirme vulnerable
 ni una lagrima solte
 por quererme ver valiente
 miedo no le demostre


 no fui tan inteligente
 y hoy no se que voy a hacer
 el camino amarillo
 no es el mismo sin esa mujer


 (CORO)
 Pero eso de nada me sirvio...

    D
 Yo era el hombre de hojalata
    D/F#
 que anhelaba un corazon
 G                  D/F#
 sin saber que lo tenia
 G           A            G  D/F# Em A D
 hasta que ella... lo rompio


D9    000230
D/F#  200230
A7    002030
Emaj  022200

            
            
Suggest correction
Creating personal tab
Creating personal tab
You can edit any tab online and save it as your Personal.

You can edit, replace or remove any tab part or add personal notes – all changes will be seen only by you.

Personal tabs can be accessed anytime from any device, even offline.
Learn more »
Give kudos to tab author, rate the tab!
1 2 3 4 5
comments
print report bad tab
guest
Wanna post a correction for this tab? Suggest correction