Oops, an error
Loading. Please wait.

Hasta La Camisa tab

version 2
version 2

Whole song

558 views 3 this week
no commentswrite comment
1 2 3 4 5
3 more votes to show rating
add to favorites
×
Save as Personal and add changes to this tab that will be seen only by you. Learn more ›
×
You can save this tab as Personal to edit and correct it or add notes. All changes will be seen only by you. Learn more »
launch autoscroll
font size
0
reset
how to read this tab
guitar tuner
edit
Autoscroll
slow
fast
+/-
esc
set tempo
stop
PUES BIEN ANDAMOS NUEVAMENTE DE REGRESO Y ESTA OCASION APORTO LA TABLATURA DE
HASTA LA CAMISA. ESTA CANCION PREFERENTEMENTE DEBE LLEVAR
CAPO EN EL PRIMER TRASTE Y EL SOLO A MITAD DE LA CANCION SE HARA SIN CAPO.


INTRO

    C#7               F#m                Bm7
e|---0---------1--5--4-4-4p2-------2-4-4/5-5-5p4-------------------
b|---2-----2-3----------------2--2---------------3-----------------
g|---4---4---------------------------------------------------------
D|---3-------------------------------------------------------------
A|---4-------------------------------------------------------------
E|---0-------------------------------------------------------------

     E                   AM7              D7*   C#7
e|---2-4-5-5p4----5/7-5--4--4-4---2/4-5----------------------------
b|-3-----------3-------------------------------------------------
g|-----------------------------------------------------------------

    C#7               F#m                Bm7
e|----------------1--5--4-4-4p2---------2-4-4/5-5-5\4--------------
b|-RAPIDO-0-0-2-3-----------------2--2----------------3-----------
g|-----------------------------------------------------------------

     E                   AM7              D7*   C#7
e|---2-4-5-5p4----5/7-5--4--4-4---2/4-5----------------------------
b|-3-----------3-------------------------------------------------
g|-----------------------------------------------------------------


F#m                           Bm7
Aquí estoy completamente como soy
                     E        E7                 AM7  D7*   C#7
Sin equipo de protección con toda la ilusión prendida
      F#m                     Bm7
Aquí voy abriendo todo el corazón
                           E     E7             AM7   D7*   C#7
Para que entres sin precaución y no busques una salida

F#m        Bm7
Esta vez quiero ser
         E          E7          AM7
El que baile por tu amor en la cornisa
         D          D#dim          E7sus4    E7*
El que apostara por ti hasta la camisa.


CORO:

    AM7                      F#m7
Por ti daría media vida, por ti mi libertad arriesgaría
    Bm7                        Dm7                      E7sus4  E
Por ti también me tatuaría, por ti no sabes todo lo que haría
    AM7                      F#m7
Por ti el cigarro dejaría, por ti mi mal humor lo cambiaria


    Bm7                        Dm7               E7sus4  E
Por ti no me cuestionaría, por ti sin duda yo me casaría
    AM7
Por ti.


SOLO SEGUNDA GUITARRA ?SIN CAPO?

e|-----------------------------------------------------------------
b|-----------------------------------------------------------------
g|---------------------------------9/12----------------------------
D|--8/10--8---8/10p8h10p8h10/11------------------------------------
A|---------8--------------------8----------------------------------
E|-----------------------------------------------------------------

e|-----------------------------------------------------------------
b|---------13-13h14-13-13-11-11------------------------------------
g|--12--15----------------------11-11-10-10------------------------
D|-----------------------------------------------------------------
A|-----------------------------------------------------------------
E|-----------------------------------------------------------------

e|-------10-13/15-13-13-------13----18/20-18-18-------------------
b|----11----------------13/15----15--------------------------------
g|-10--------------------------------------------------------------
D|-----------------------------------------------------------------
A|-----------------------------------------------------------------
E|-----------------------------------------------------------------

**
e|----------------------------------------------------------------
b|-----------------------------------------------------------------
g|-----------------------------------------------------------------
D|-----8--10-(10bx2)/--12-13-12-10-8-------------------------------
A|-8/10------------------------------------------------------------
E|-----------------------------------------------------------------

EL (10bx2) SIGNIFICA QUE LA CUARTA CUERDA EN EL TRASTE DIEZ,
SE DEBE JALAR HACIA ABAJO Y DESPUES HACIA ARRIBA BAJANDO MEDIO TONO.
Y DESPUES SE HARA UN SLIDE (/) HACIA EL TRASTE 12 TOCAR LA SECUENCIA QUE VIENE.
A MI PARECER SUENA MEJOR ASI.


e|----------------------------------------------------------------
b|-----------------------------------------------------------------
g|-----------------------------------------------------------------
D|--10/12--10-8---8--10------------------------------------------
A|--------------8-------8------------------------------------------
E|-----------------------------------------------------------------

Variación DE **
e|----------------------------------------------------------------
b|-----------------------------------------------------------------
g|-----------------------------------------------------------------
D|-----8-10h11p10h11p10---12-13-12-10-8----------------------------
A|-8/10------------------------------------------------------------
E|-----------------------------------------------------------------


F#m                           Bm7
Aquí estoy completamente como soy
                     E        E7                   A    D7*   C#7
Sin signos de interrogación sin miedos trás de la sonrisa

F#m        Bm7
Esta vez quiero
         E          E7          AM7
ser el que baile por tu amor en la cornisa
         D          D#dim          E7sus4    E7*
El que apostara por ti hasta la camisa.


CORO:

    AM7                      F#m7
Por ti daría media vida, por ti mi libertad arriesgaría
    Bm7                        Dm7                      E7sus4  E
Por ti también me tatuaría, por ti no sabes todo lo que haría
    AM7                      F#m7
Por ti el cigarro dejaría, por ti mi mal humor lo cambiaria
    Bm7                        Dm7                      E7sus4  E
Por ti no me cuestionaría, por ti sin duda yo me casaría
    AM7
Por ti.

    AM7                      F#m7
Por ti daría media vida, por ti mi libertad arriesgaría
    Bm7                        Dm7                      E7sus4  E
Por ti también me tatuaría, por ti no sabes todo lo que haría
    AM7                      F#m7
Por ti el cigarro dejaría, por ti mi mal humor lo cambiaria
    Bm7                        Dm7                      E7sus4  E
Por ti no me cuestionaría, por ti sin duda yo me casaría
    AM7
Por ti.


        EADgbe
F#m     244222
Bm7     224232
E       022100
E7      020100
D7*     X54530
C#7     X43420
AM7     002120
D       000232
D#dim   XX1212
E7sus4  022200
F#m7    242222
Dm7     557565
E7*     076750

DUDAS COMENTARIOS Y/O SUGERENCIAS FAVOR DE ESCRIBIR A alfa_omega22@

            
            
Suggest correction
Creating personal tab
Creating personal tab
You can edit any tab online and save it as your Personal.

You can edit, replace or remove any tab part or add personal notes – all changes will be seen only by you.

Personal tabs can be accessed anytime from any device, even offline.
Learn more »
Give kudos to tab author, rate the tab!
1 2 3 4 5
comments
print report bad tab
guest
Wanna post a correction for this tab? Suggest correction