Oops, an error
Loading. Please wait.

Las Cartas Sobre La Mesa tab

143 views 3 this week
no commentswrite comment
1 2 3 4 5
3 more votes to show rating
add to favorites
×
Save as Personal and add changes to this tab that will be seen only by you. Learn more ›
×
You can save this tab as Personal to edit and correct it or add notes. All changes will be seen only by you. Learn more »
launch autoscroll
font size
0
reset
how to read this tab
guitar tuner
edit
Autoscroll
slow
fast
+/-
esc
set tempo
stop
RIFF INTRO

E----------------------------------
A----------------------------------
D----------------------------------
G--------14p14--------14-----------
B-p14-12--------p14-12--14-full-15-
e----------------------------------

E-----------------------------------------------
A-----------------------------------------------
D-----------------------------------------------
G-----------------------19-18-19-18-19-p16-p18--
B-----------------19-17-------------------------
e---full-17-17s16-------------------------------


E--------------------------------
A--------------------------------
D--------------------------------
G--------------------------------
B-18p-19-18-p16--18p16--full-14--
e--------------------------------

INTRO

Amaj7 Bsus4 Amaj7 Bsus4
Amaj7 Bsus4 Amaj7 Bsus4


  Amaj7
Me puso las cartas sobre la mesa,
  Bsus4
desde que la conocí,
  Amaj7
Me dijo no creo en amores eternos,
   Bsus4
no debes confiar en mí.
     D
Mi orgullo cobarde se puso valiente,
  C#m7
y quiso entrarle así,
     G
y al verme de lado tan enamorado,
  Bm7  (Riff1)   Esus4  E7
mejor decidió partir.

Riff1
G--------------------------------
B--17s-14------------------------
e--------------------------------

Riff2
E--------------------------------------------------------------
A-5p-7p-9------------9---------------9--------------p4---------
D---------7s-9--11p-9--full-7--11p-9---full-7--6p-4----2-2s4-2-
G--------------------------------------------------------------
B--------------------------------------------------------------
e--------------------------------------------------------------

Riff3
D--------------------9p7--
G-----------7p-9-9p7------
B-9p10-9-p7---------------
e-------------------------

         D                           C#m7
Poque sabía, perfectamente que la quería
    G/B       A7        D
por eso se largó de mi vida,
    Bm7                Esus4  E7
por eso no se quiso quedar.
         D                         C#m7
Porque sabía perfectamente que perdería,
G/B      A7         D
si se quedaba otro día,
Bm7        E7 (Riff2) D   C#m7  D  Bm7  E7 (Riff3)
no iba a largarse jamás.

Riff4
E-------------
A-2p4---------
D----2-2p4-2--


   Amaj7
Le puse mis sueños sobre la mesa,
 Bsus4
aquella mañana gris,
   Amaj7
le hablé del futuro, de un tiempo seguro,
   Bsus4
pero no la ví feliz,
      D
su orgullo valiente se puso cobarde
     C#m7            (Riff4)
y no quiso entrarle así,
     G
y al verse asustada tan enamorada
  Bm7            Esus4  E7
mejor decidió partir.

         D                           C#m7
Poque sabía, perfectamente que la quería
    G/B       A7        D
por eso se largó de mi vida,
    Bm7                Esus4  E7
por eso no se quiso quedar.
         D                         C#m7
Porque sabía perfectamente que perdería,
G/B      A7         D
si se quedaba otro día,
Bm7         E7      D   C#m7 Bm7  E7
no iba a largarse jamás.

             D                           C#m7
Poque ella sabía, perfectamente que la quería
    G/B       A7        D
por eso se largó de mi vida,
    Bm7                Esus4  E7
por eso no se quiso quedar.
             D                         C#m7
Porque ella sabía perfectamente que perdería,
G/B      A7         D
si se quedaba otro día,
Bm7        Esus4  E7   D C#m7 Bm7
no iba a largarse jamás.
E7                 Amaj7
no iba a largarse jamás.

            
            
Suggest correction
Creating personal tab
Creating personal tab
You can edit any tab online and save it as your Personal.

You can edit, replace or remove any tab part or add personal notes – all changes will be seen only by you.

Personal tabs can be accessed anytime from any device, even offline.
Learn more »
Give kudos to tab author, rate the tab!
1 2 3 4 5
comments
print report bad tab
guest
Wanna post a correction for this tab? Suggest correction