Oops, an error
Loading. Please wait.

Paratiisi Tab

version 1
version 1

Solo

  • Guitar solo tab for Paratiisi.

Whole song

Interactive

1,015 views 96 this week
no commentswrite comment
1 2 3 4 5
2 more votes to show rating
add to favorites
launch autoscroll
font size
0
reset
how to read this tab
guitar tuner
Autoscroll
slow
fast
+/-
esc
set tempo
stop
Help us to improve Ultimate-Guitar.com Take our survey!
×
Author
Difficulty
intermediate
About this tab version
Guitar solo tab for Paratiisi. Was this info helpful? Yes No
[Solo]

  1:13
e|---------------5----------------|--5------------5------8b10--8--5-------------|
B|-----------------8------------5-|----8-5--8b10---8p5--------------8-----------|
G|----5--7--7b9-------7b9r7-5-7---|------------------------------------7b9r7--5-|
D|-7------------------------------|---------------------------------------------|
A|--------------------------------|---------------------------------------------|
E|--------------------------------|---------------------------------------------|

  1:18
e|---------------------------------------|-12-----15b17r15-12-------------15b17-|
B|-----12--11/12~--10--12--10--12--10--9-|-----12-------------15b17~------------|
G|-7/8-----------------------------------|--------------------------------------|
D|---------------------------------------|--------------------------------------|
A|---------------------------------------|--------------------------------------|
E|---------------------------------------|--------------------------------------|

  1:22
e|-15-12---------------------------------------|-------------------------------------------------------|
B|-------15b17r15-13-15----15b17---------------|-------------------------------13-15-15b17r15-13-15-13-|
G|----------------------14---------14-12-------|----------------------12-13-14-------------------------|
D|---------------------------------------14-13-|-12----------12-13-14----------------------------------|
A|---------------------------------------------|----15-12-15-------------------------------------------|
E|---------------------------------------------|-------------------------------------------------------|

  1:27
e|-------12-15-12-------12-------12-------12-15b17-15-12----|-----12--12-10--8---------|
B|-15b17----------15b16----15b16----15b16----------------15-|-13--13--13-12--10--------|
G|----------------------------------------------------------|--------------------------|
D|----------------------------------------------------------|--------------------------|
A|----------------------------------------------------------|--------------------------|
E|----------------------------------------------------------|--------------------------|

  1:32
e|----5---7/8---5--5---7/8---5-|-5---7/8---5--5---5-7--8-|--8------11b12--8----------8---------|
B|-----------------------------|-------------------------|-------8---------8-------------------|
G|-5--5---8/9---5--5---8/9---5-|-5---8/9---5--5---5-7--9-|--9---------------10---8b9-----12b13-|
D|-----------------------------|-------------------------|-------------------------------------|
A|-----------------------------|-------------------------|-------------------------------------|
E|-----------------------------|-------------------------|-------------------------------------|

  1:40
e|----------------------5---|---------5-7-8---8--10--12-|-12--12-12---8--10-8-----8--8---8--|
B|------------------------8-|---------5-5-5---8--12--13-|-13--13-13---10-10-10-10-10-10--10-|
G|-9-------------7-9--------|-7b9r7-5-------------------|----------------------9------------|
D|---9-8-7-9-6-7------------|---------------------------|-----------------------------------|
A|--------------------------|---------------------------|-----------------------------------|
E|--------------------------|---------------------------|-----------------------------------|

  1:48
e|-7--7/10--10--12--12-10---11/12-|-12--12-10---8-----|
B|-9--9/12--12--13--13-12---12/13-|-13--13-12---10----|
G|--------------------------------|-----------------9-|
D|--------------------------------|-------------------|
A|--------------------------------|-------------------|
E|--------------------------------|-------------------|


************************************


| p   Pull-off
| r   Release
| b   Bend
| br  Bend release
| /   Slide up
| ~   Vibrato

************************************
Suggest correction
Give kudos to tab author, rate the tab!
1 2 3 4 5
comments
print report bad tab
guest
You may want to rate the tab now too:
select rating
Wanna post a correction for this tab? Suggest correction