Oops, an error
Loading. Please wait.

Navidad Navidad tab

154 views 1 this week
no commentswrite comment
1 2 3 4 5
3 more votes to show rating
add to favorites
×
Save as Personal and add changes to this tab that will be seen only by you. Learn more ›
×
You can save this tab as Personal to edit and correct it or add notes. All changes will be seen only by you. Learn more »
launch autoscroll
font size
0
reset
how to read this tab
guitar tuner
edit
Autoscroll
slow
fast
+/-
esc
set tempo
stop
EL REQUINTO TOCA CON EL CAPO EN EL 7MO TRASTE

INTRO
E-12-12-------------------12---10-10-------------------10---
B-------12-12----------12------------10-10----------10------
G-------------13-13-13---------------------11-11-11---------

E-8-8-------------8---7-7-------------7---------------
B-----8-8-------8---------7-7-------7-----------------
G---------9-9-9---------------8-8-8-------------------

E-12-12-------------------12---14-14-14------------------14-
B-------12-12----------12---------------15-15----------15---
G-------------13-13-13------------------------14-14-14------

E-12-12-12------------------12---10-10-10------------------10--
B---------13-13----------13---------------11-11----------11----
G---------------12-12-12------------------------10-10-10-------

E-12-12-------------------12---10-10-------------------10---
B-------12-12----------12------------10-10----------10------
G-------------13-13-13---------------------11-11-11---------

E-8-8-------------8---7-7----------------
B-----8-8-------8---------7-7------------
G---------9-9-9---------------8-8-8------

MAMBO 1
B-----8---10-----8-----10----------10----12-------10---8--
G---9----------9----11----------11-------------11----9----
D-9-----9----9---------------12-------12----12------------

B------8----10------8---7--------7---10-----7---8-----
G----9------------9---8--------8----------8---9-------
D-10-----10----10------------9-----9----9-------------x3

A                       D               C                  B
Hermano mio esta Navidad  Quisas yo no vaya que triste sera
A                         D                    C                  B
La pasare lejo de mi madre lejo mis hermanos y de mi papa  hay navidad
A                 B       A                       B
Navidad  Navidad  hay  Navidad  Navidad  Navidad  que triste sera  x2

MAMBO 1
B-----8---10-----8-----10----------10----12-------10---8--
G---9----------9----11----------11-------------11----9----
D-9-----9----9---------------12-------12----12------------

B------8----10------8---7--------7---10-----7---8-----
G----9------------9---8--------8----------8---9-------
D-10-----10----10------------9-----9----9-------------x2

MAMBO 2
E-----7---10-----7-----10----------10----12-------10---8--
B---8----------8----10----------10-------------10----8----
G-9-----9----9---------------11-------11----11------------

E------8---10------8---7--------7---9------7---7-----
B----8-----------9---7--------7----------8---8-------
G-9-----9-----10------------8-----8----9-------------x3

A                                D                          C        B
En este Pais  donde vivo ahora   se siente el viento en la navidad
A                                        D
Cuando sean las doce ustedes selebrando y yo aqua en esta tierra
  C           B             A              D
triste y desconsolado       Cuando pongan la sena en  sima de la mesa
D                                   C           B
se acordaran de mi porque alli no estare       hay mi mama
A                 B       A                       B
Navidad  Navidad  hay  Navidad  Navidad  Navidad  que triste sera  x3

MAMBO 1
B-----8---10-----8-----10----------10----12-------10---8--
G---9----------9----11----------11-------------11----9----
D-9-----9----9---------------12-------12----12------------

B------8----10------8---7--------7---10-----7---8-----
G----9------------9---8--------8----------8---9-------
D-10-----10----10------------9-----9----9-------------x2

MAMBO 2
E-----7---10-----7-----10----------10----12-------10---8--
B---8----------8----10----------10-------------10----8----
G-9-----9----9---------------11-------11----11------------

E------8---10------8---7--------7---9------7---7-----
B----8-----------9---7--------7----------8---8-------
G-9-----9-----10------------8-----8----9-------------x3

INTRO
E-12-12-------------------12---10-10-------------------10---
B-------12-12----------12------------10-10----------10------
G-------------13-13-13---------------------11-11-11---------

E-8-8-------------8---7-7-------------7---------------
B-----8-8-------8---------7-7-------7-----------------
G---------9-9-9---------------8-8-8-------------------

E-12-12-------------------12---14-14-14------------------14-
B-------12-12----------12---------------15-15----------15---
G-------------13-13-13------------------------14-14-14------

E-12-12-12------------------12---10-10-10------------------10--
B---------13-13----------13---------------11-11----------11----
G---------------12-12-12------------------------10-10-10-------

MAMBO FINAL  TOCAR HASTA QUE SE ACABE LA CANCION
         C                   B
E-----12-12-12-15-15--------10-10-10-13-13----
B-----13-13-----------------11-11-------------
G--12-12-12--------------10-10-10-------------

            
            
Suggest correction
Creating personal tab
Creating personal tab
You can edit any tab online and save it as your Personal.

You can edit, replace or remove any tab part or add personal notes – all changes will be seen only by you.

Personal tabs can be accessed anytime from any device, even offline.
Learn more »
Give kudos to tab author, rate the tab!
1 2 3 4 5
comments
print report bad tab
guest
Wanna post a correction for this tab? Suggest correction