Oops, an error
Loading. Please wait.

Hyde bass

81 views 1 this week
no commentswrite comment
1 2 3 4 5
3 more votes to show rating
add to favorites
×
Save as Personal and add changes to this tab that will be seen only by you. Learn more ›
×
You can save this tab as Personal to edit and correct it or add notes. All changes will be seen only by you. Learn more »
launch autoscroll
font size
0
reset
guitar tuner
edit
Autoscroll
slow
fast
+/-
esc
set tempo
stop
-------------------------------------------------------------------------------
                                         HYDE - Ravenscode
-------------------------------------------------------------------------------
Tabbed by: Ravenscode
E-mail: contact@ravenscode.com

Tuning: Drop D
Time: 4/4

INTRO

G|----------------------------------|
D|---0h3p2p0----0h3p2p0-----0h3h5---|
A|-----------3h5--------1h3---------|
D|----------------------------------|

VERSE
      Tonight we will see what is in store have you help up your end again?
G|--------|---------|---------|----------|
D|------5-|-3~--3-5-|-2---2-2-|-3-2-0----|
A|-5~--5--|---------|---------|--------4-|
D|--------|---------|---------|----------|

    Well I'll be here waiting for you I hope I can count on you my friend
G|--------|---------|---------|----------|
D|------5-|-3~--3-5-|-2---2-2-|-3-2-0----|
A|-5~--5--|---------|---------|--------4-|
D|--------|---------|---------|----------|

  Everyone knows the risk involved and you know it never ends
G|--------|---------|---------|----------|
D|------5-|-3~--3-5-|-2---2-2-|-3-2-0----|
A|-5~--5--|---------|---------|--------4-|
D|--------|---------|---------|----------|

   To fight is a must for all who can see with broken bones that will not mend
G|--------|---------|---------|----------|
D|------5-|-3~--3-5-|-2---2-2-|-3-2-0----|
A|-5~--5--|---------|---------|--------4-|
D|--------|---------|---------|----------|


CHORUS
   
   I know I will remember you when we all have seen your face
G|-------------|-------------|------------|--------------------|
D|-------------|-------------|------------|--------3h5-55-5h7--|
A|-5-5---55--5-|-1-1---33--3-|------------|-3-3-3h5------------|
D|-----7-------|-----3-------|-3-3-0-33-3-|--------------------|

   There is no where to run it's true we will search in every place
G|-------------|-------------|------------|--------------------|
D|-------------|-------------|------------|--------3h5-55-5h7--|
A|-5-5---55--5-|-1-1---33--3-|------------|-3-3-3h5------------|
D|-----7-------|-----3-------|-3-3-0-33-3-|--------------------|

G|----------------------------------|
D|---0h3p2p0----0h3p2p0-----0h3h5---|
A|-----------3h5--------1h3---------|
D|----------------------------------|


VERSE #2
   
   You've scattered away without a trace, where you left us all behind 
G|--------|---------|---------|----------|
D|------5-|-3~--3-5-|-2---2-2-|-3-2-0----|
A|-5~--5--|---------|---------|--------4-|
D|--------|---------|---------|----------|

   We've picked up your trail, footprints on the ground and we'll follow your every sign   
G|--------|---------|---------|----------|
D|------5-|-3~--3-5-|-2---2-2-|-3-2-0----|
A|-5~--5--|---------|---------|--------4-|
D|--------|---------|---------|----------|

  You will soon know, we're coming for you with only one thing on our mind
G|--------|---------|---------|----------|
D|------5-|-3~--3-5-|-2---2-2-|-3-2-0----|
A|-5~--5--|---------|---------|--------4-|
D|--------|---------|---------|----------|


PRE CHORUS

G|----------------|--------------|---------------|-------------------|
D|----------------|--------------|---------------|-------------------|
A|-------------5\-|---------8p7--|-------------5-|-5555555577777777--|
D|--0-000-0--0----|-0-000-0------|--0-000-0--0---|-------------------|
      xxx             xxx             xxx

CHORUS #2

   I know I will remember you when we all have seen your face
G|-------------|-------------|------------|--------------------|
D|-------------|-------------|------------|--------3h5-55-5h7--|
A|-5-5---55--5-|-1-1---33--3-|------------|-3-3-3h5------------|
D|-----7-------|-----3-------|-3-3-0-33-3-|--------------------|

   There is no where to run it's true we will search in every place
G|-------------|-------------|------------|--------------------|
D|-------------|-------------|------------|--------3h5-55-5h7--|
A|-5-5---55--5-|-1-1---33--3-|------------|-3-3-3h5------------|
D|-----7-------|-----3-------|-3-3-0-33-3-|--------------------|
   
   You can not hide from this one (my old friend) We will hunt you down each day and night
G|-------------|-------------|------------|--------------------|
D|-------------|-------------|------------|--------3h5-55-5h7--|
A|-5-5---55--5-|-1-1---33--3-|------------|-3-3-3h5------------|
D|-----7-------|-----3-------|-3-3-0-33-3-|--------------------|

   We'll pull you out of the ground again, just when you think you're out of sight
G|-------------|-------------|------------|--------------------|
D|-------------|-------------|------------|--------3h5-55-5h7--|
A|-5-5---55--5-|-1-1---33--3-|------------|-3-3-3h5------------|
D|-----7-------|-----3-------|-3-3-0-33-3-|--------------------|


GUITAR SOLO
(play chorus)


BREAKDOWN

G|--------------------------------------|
D|--------------------------------------|
A|--5555555511111111---------33333333---|
D|------------------333333333-----------|

CHORUS #3

   You can not hide from this one (my old friend) We will hunt you down each day and night
G|-------------|-------------|------------|--------------------|
D|-------------|-------------|------------|--------3h5-55-5h7--|
A|-5-5---55--5-|-1-1---33--3-|------------|-3-3-3h5------------|
D|-----7-------|-----3-------|-3-3-0-33-3-|--------------------|

   We'll pull you out of the ground again, just when you think you're out of sight
G|-------------|-------------|------------|--------------------|
D|-------------|-------------|------------|--------3h5-55-5h7--|
A|-5-5---55--5-|-1-1---33--3-|------------|-3-3-3h5------------|
D|-----7-------|-----3-------|-3-3-0-33-3-|--------------------|

   Now we're closing in,        your times running out.
G|----------------|----------------------------------|
D|----------------|---0h3p2p0----0h3p2p0-----0h3h5---|
A|-------------5\-|-----------3h5--------1h3---------|
D|--0-000-0--0----|----------------------------------|
      xxx

END



| /  slide up
| \  slide down
| h  hammer-on
| p  pull-off
| ~  vibrato
| +  harmonic
| x  Mute note
===============================================================================
Suggest correction
Creating personal tab
Creating personal tab
You can edit any tab online and save it as your Personal.

You can edit, replace or remove any tab part or add personal notes – all changes will be seen only by you.

Personal tabs can be accessed anytime from any device, even offline.
Learn more »
Give kudos to tab author, rate the tab!
1 2 3 4 5
comments
print report bad tab
guest
You may want to rate the tab now too:
select rating
Wanna post a correction for this tab? Suggest correction