Oops, an error
Loading. Please wait.

No Way Out bass

282 views 1 this week
no commentswrite comment
1 2 3 4 5
3 more votes to show rating
add to favorites
×
Save as Personal and add changes to this tab that will be seen only by you. Learn more ›
×
You can save this tab as Personal to edit and correct it or add notes. All changes will be seen only by you. Learn more »
launch autoscroll
font size
0
reset
guitar tuner
edit
Autoscroll
slow
fast
+/-
esc
set tempo
stop
Difficulty
intermediate
-------------------------------------------------------------------------------
                                                   NO WAY OUT - Ravenscode
-------------------------------------------------------------------------------
Tabbed by: Indie Fan
This is such a fat bass line.  I just needed to tab it.

Tuning: Standard
Time: 6/8

INTRO
G|------------|-----------|-------------|-------5-|-------------|
D|---Guitar---|-----------|-------------|--3--2---|-------------|
A|---4 Bars---|-----------|-------------|---------|-------------|
E|------------|--5-5-3h5~-|-5-5-3h5~--5-|---------|-5-5-3h5~----|

VERSE

    Tossing and turning as I lay here with a thousand thoughts in my head. My
G|---------------|---------------|-----------|-------------------------------|
D|---------------|---------------|--3-2------|-------------------------------|
A|---------------|---------------|------3-2--|-------------------------------|
E|----5-5--3h5~--|--5-5--3h5~--5-|-----------|--5-5--3h5~--------------------|

     mind has never been so unclear there's much that I've left unsaid.  I've
G|-------------|---------------|----------5-|--------------------------------|
D|-------------|---------------|--3--2------|--------------------------------|
A|-------------|---------------|------------|--------------------------------|
E|----5-5-3h5~-|--5-5--3h5~--5-|------------|-5-5--3h5~----------------------|

     seen the way that things should be we can't go on this way.          But
G|---------------|---------------|-----------|-------------------------------|
D|---------------|---------------|--3-2------|-------------------------------|
A|---------------|---------------|------3-2--|-------------------------------|
E|----5-5--3h5~--|--5-5--3h5~--5-|-----------|--5-5--3h5~--------------------|

     all I know is it's hard to leave when your asking me to stay... 
G|-------------|---------------|----------5-|--------------------------------|
D|-------------|---------------|--3--2------|--------------------------------|
A|-------------|---------------|------------|--------------------------------|
E|----5-5-3h5~-|--5-5--3h5~--5-|------------|-5-5--3h5~------let-ring--------|


**Crazy Guitar Part**

PRE-CHORUS
                                                                    And there's...
G|-------------|------------|-----------|--------------|---------------------|
D|-------------|------------|-----------|--------------|---------------------|
A|-------------|------------|-----------|--------------|---------------------|
E|---1~~~~~----|--5~~~~-----|--1~~~~----|--5~~~~~------|--3--3--3--3--3--3---|

CHORUS

  No way         no way        out        of this   life we're given
G|--------------|-------------|-------------------|--------------------------|
D|--------------|-------------|--------------5h7--|--------------3h5---------|
A|--------------|-------------|----------5h7------|----------3h5-------------|
E|--1--1-1-111--|-1--1-1-111--|-5-5--55-----------|-3-3--33------------------|

  No way         no way        out                 I'll keep on living
G|--------------|-------------|-------------------|--------------------------|
D|--------------|-------------|--------------5h7--|--------------3h5---------|
A|--------------|-------------|----------5h7------|----------3h5-------------|
E|--1--1-1-111--|-1--1-1-111--|-5-5--55-----------|-3-3--33------------------|

  Through this life can't you see what your love has done to me. So it feels like there is
G|--------------|-------------|-------------------|--------------------------|
D|--------------|-------------|--------------5h7--|--------------3h5---------|
A|--------------|-------------|----------5h7------|----------3h5-------------|
E|--1--1-1-111--|-1--1-1-111--|-5-5--55-----------|-3-3--33------------------|

  No way         no way out    no way........
G|--------------|-------------|----------------|----------------|------------|
D|--------------|-------------|----------------|----------------|------------|
A|--------------|-------------|----------------|----------------|------------|
E|--1--1-1-111--|-1--1-1-111--|-5-5-5-5-5-5----|-3-3-3-3-3-3----|-1-~-~------|


VERSE #2

    My mind is filled with indecision, I may never see the light          So
G|---------------|---------------|----------5-|------------------------------|
D|---------------|---------------|--3--2------|------------------------------|
A|---------------|---------------|------------|------------------------------|
E|----5-5--3h5~--|--5-5--3h5~--5-|------------|--5-5--3h5~-------------------|

     keep me close with this condition can't keep you warm at night
G|-------------|---------------|------------|--------------------------------|
D|-------------|---------------|--3--2------|--------------------------------|
A|-------------|---------------|-------3-2--|--------------------------------|
E|----5-5-3h5~-|--5-5--3h5~--5-|------------|-5-5--3h5~----------------------|

     I've seen the way that things should be we cant go on this way
G|-----------------|---------------|----------5-|----------------------------|
D|-----------------|---------------|--3--2------|----------------------------|
A|-----------------|---------------|------------|----------------------------|
E|----5-5--3h5~--0-|--5-5--3h5~--5-|------------|--5-5--3h5~-----------------|

     but all i know is it hard to leave when your asking me to stay
G|---------------|---------------|----------5-|------------------------------|
D|---------------|---------------|--3--2------|------------------------------|
A|---------------|---------------|------------|------------------------------|
E|----5-5-3h5~-0-|--5-5--3h5~--5-|------------|-5-5--3h5~-------------5/17\1-|


CHORUS #2

  No way         no way        out        of this   life we're given
G|--------------|-------------|-------------------|--------------------------|
D|--------------|-------------|--------------5h7--|--------------3h5---------|
A|--------------|-------------|----------5h7------|----------3h5-------------|
E|--1--1-1-111--|-1--1-1-111--|-5-5--55-----------|-3-3--33------------------|

  No way         no way        out                 I'll keep on living
G|--------------|-------------|-------------------|--------------------------|
D|--------------|-------------|--------------5h7--|--------------3h5---------|
A|--------------|-------------|----------5h7------|----------3h5-------------|
E|--1--1-1-111--|-1--1-1-111--|-5-5--55-----------|-3-3--33------------------|

  Through this life can't you see what your love has done to me. So it feels like there is
G|-----------------|----------------|-------------------|--------------------|
D|-----------------|----------------|--------------5h7--|--------------3h5---|
A|-----------------|----------------|----------5h7------|----------3h5-------|
E|--1-1-1/11-11-11-|-1-1-1/11-11-11-|-5-5--55-----------|-3-3--33------------|

  No way         no way        out              no way........
G|--------------|-------------|----------------|----------------|------------|
D|--------------|-------------|----------------|----------------|------------|
A|--------------|-------------|----------------|----------------|------------|
E|--1--1-1-111--|-1--1-1-111--|-5-5-5-5-5-5----|-3-3-3-3-3-3----|-1-~-~------|


INTERLUDE

G|----------|---------|---------|--------|---------|---------|
D|----------|---------|---------|--------|---------|-3~-~----|
A|----------|---------|---------|--------|---------|---------|
E|--5-5-----|-3-3-----|-1-~-----|-5-5----|-3-3-----|---------|
    x x       x x                 x x      x x 


PRE SOLO

   You'll keep on living  
G|----------------------|-------10------|
D|----------------------|----10---------|
A|----------------------|--8------------|
E|----------------------|---------------|

  Better off without me             I'll let you go........
G|----------------------|------------------------|---------------------------|
D|----------------------|------------------------|---------------------------|
A|----------------------|------------------------|---------------------------|
E|----------------------|-5-5-3h5-~--------------|-3-3-3-3-3-3-3-3-3-3-3-15\-|

SOLO (CHORUS #2)

1\2 CHORUS
                                                 
G|---------------------------------------------------------------------------|
D|---------------------------------------------------------------------------|
A|---------------------------------------------------------------------------|
E|----5--5--3h5~~~-----------------------------------------------------------|


END



| /  slide up
| \  slide down
| h  hammer-on
| p  pull-off
| ~  vibrato
| +  harmonic
| x  Mute note
===============================================================================

            
            
Suggest correction
Creating personal tab
Creating personal tab
You can edit any tab online and save it as your Personal.

You can edit, replace or remove any tab part or add personal notes – all changes will be seen only by you.

Personal tabs can be accessed anytime from any device, even offline.
Learn more »
Give kudos to tab author, rate the tab!
1 2 3 4 5
comments
print report bad tab
guest
Wanna post a correction for this tab? Suggest correction