Oops, an error
Loading. Please wait.

Id Be Delighted Bass Tab

13 views 1 this week
no commentswrite comment
1 2 3 4 5
3 more votes to show rating
add to favorites
launch autoscroll
font size
0
reset
guitar tuner
Autoscroll
slow
fast
+/-
esc
set tempo
stop
Help us to improve Ultimate-Guitar.com Take our survey!
×
Author
Difficulty
novice
Tabbed by: 6METAL6BASSIST6
E-mail: petergriffinav@gmail.com

Tuning: EADG

G|----------------------------------------------------------------|
D|----------------------------------------------------------------|
A|----------------------------------------------------------------|
E|----------------------------------------------------------------|

G|----------------------------------------------------------------|
D|----------------------------------------------------------------| x5
A|----------------------------------------------------------------|
E|5---5---7---7---5---5---7---7---5---5---7---7---5---5---7---7---|

0:23

G|----------------------------------------------------------------|
D|----------------------------------------------------------------| x4
A|----------------------------------------------------------------|
E|5---5---7---7---5---5---7---7---5---5---7---7---5---5---7---7---|

0:39

G|----------------------------------------------------------------|
D|----------------------------------------------------------------| x2
A|--------------------5---7-----------------------3---4---5---7---|
E|5-------5-------5-----------3-----------5-----------------------|

G|----------------------------------------------------------------|
D|----------------------------------------------------------------| x2
A|----------------------------------------------------------------|
E|5---5---7---7---5---5---7---7---5---5---7---7---5---5---7---7---|

0:55

G|----------------------------------------------------------------|
D|----------------------------------------------------------------| x4
A|----------------------------------------------------------------|
E|5---5---7---7---5---5---7---7---5---5---7---7---5---5---7---7---|

1:11

G|----------------------------------------------------------------|
D|----------------------------------------------------------------| x2
A|--------------------5---7-----------------------3---4---5---7---|
E|5-------5-------5-----------3-----------5-----------------------|

G|----------------------------------------------------------------|
D|----------------------------------------------------------------|
A|----------------------------------------------------------------|
E|5---5---7---7---5---5---7---7---5---5---7---7---5---5---7---7---|

1:23

G|----------------------------------------------------------------|
D|----------------------------------------------------------------|
A|7---------------------------7---5---------------------------5---|
E|------------5-------6---7-------------------3-------4---5-------|

G|----------------------------------------------------------------|
D|----------------------------------------------------------------|
A|7---------------------------7---5---------------------------5---|
E|------------5-------6---7-------------------3-------3---5-------|

G|----------------------------------------------------------------|
D|----------------------------------------------------------------|
A|7---------------------------7---5---5-----------------------5---|
E|------------5-------6---7-------------------3-------4---5-------|

G|----------------------------------------------------------------|
D|----------------------------------------------------------------|
A|7---6---5-----------------------7---6---5-----------------------|
E|------------7---6---5---6---7---------------7---6---5---6---7---|

G|----------------------------------------------------------------|
D|----------------------------------------------------------------| x2
A|----------------------------------------------------------------|
E|5---5---7---7---5---5---7---7---5---5---7---7---5---5---7---7---|

1:46

G|----------------------------------------------------------------|
D|----------------------------------------------------------------| x4
A|----------------------------------------------------------------|
E|5---5---7---7---5---5---7---7---5---5---7---7---5---5---7---7---|

2:01

G|----------------------------------------------------------------|
D|----------------------------------------------------------------|
A|------------------------5---7-------------------3---4---5---7---|
E|5-------5-------5---5-----------3-------5-----------------------|

G|----------------------------------------------------------------|
D|----------------------------------------------------------------|
A|--------------------5---7-----------------------3---4---5---7---|
E|5-------5-------5-----------3-----------5-----------------------|

G|----------------------------------------------------------------|
D|----------------------------------------------------------------|
A|----------------------------------------------------------------|
E|5---5---7---7---5---5---7---7---5---5---7---7---5---5---7---7---|

G|----------------------------------------------------------------|
D|----------------------------------------------------------------|
A|----------------------------------------------------------------|
E|5---5---7---7---5---5---7---7---5---5---7---7---5---5---7-------|

G|------------------------------------------------------------|
D|------------------------------------------------------------|
A|------------------------------------------------------------|
E|------------------------------------------------------------|

2:22

G|----------------------------------------------------------------|
D|----------------------------------------------------------------| x8
A|----------------------------------------------------------------|
E|5---5---7---7---5---5---7---7---5---5---7---7---5---5---7---7---|

2:52

G|----------------------------------------------------------------|
D|----------------------------------------------------------------| x4
A|----------------------------------------------------------------|
E|5---5---7---7---5---5---7---7---5---5---7---7---5---5---7---7---|

3:08

G|----------------------------------------------------------------|
D|----------------------------------------------------------------|
A|--------------------5---7-----------------------3---4---5---7---|
E|5-------5-------5-----------3-----------5-----------------------|

G|----------------------------------------------------------------|
D|----------------------------------------------------------------|
A|------------------/-7---------------------------3---4---5---7---|
E|5-------5---5---5-------0---3-----------5-----------------------|

3:15

G|----------------------------------------------------------------|
D|----------------------------------------------------------------| x11
A|----------------------------------------------------------------|
E|5---5---7---7---5---5---7---7---5---5---7---7---5---5---7---7---|

3:59

G|----------------------------------------------------------------|
D|----------------------------------------------------------------| x3
A|----------------------------------------------------------------|
E|5---5---7---7---5---5---7---7---5---5---7---7---5---5---7---7---|

G|----------------------------------------------------------------|
D|----------------------------------------------------------------|
A|----------------------------------------------------------------|
E|5---5---7---7---5---5---7---7---5---5---7---7---5---5---7---0---|

4:14

G|----------------------------------------------------------------|
D|----------------------------------------------------------------| x2
A|--------------------5---7-----------------------3---4---5---7---|
E|5-------5-------5-----------3-----------5-----------------------|

G|----------------------------------------------------------------|
D|----------------------------------------------------------------|
A|----------------------------------------------------------------|
E|5---5---7---7---5---5---7---7---5---5---7---7---5---5---7---7---|

G|------------------------------------------------------------|
D|------------------------------------------------------------|
A|------------------------------------------------------------|
E|5---5---7---7---5---5---7---7---5---5---7---7---5---5---7---|



4:44

G|------------------------------------------------------------------------|
D|------------------------------------------------------------------------| x3
A|6---6-----6-------------4-----5-----6---6-----6-------------4-----5-----|
E|------------------6-----------------------------------6-----------------|

G|------------------------------------------------------------------------|
D|------------------------------------------------------------------------| x2
A|6---6-----6-------------4-----5-----6---6-----6-------------------------|
E|------------------6-----------------------------------6-----------------|

G|----------------------------------------|
D|----------------------------------------|
A|6---6-----6-------------4-----5-----6---|
E|------------------6---------------------|
Suggest correction
Give kudos to tab author, rate the tab!
1 2 3 4 5
comments
print report bad tab
guest
You may want to rate the tab now too:
select rating
Wanna post a correction for this tab? Suggest correction