Oops, an error
Loading. Please wait.

Id Be Delighted bass

121 views 12 this week
no commentswrite comment
1 2 3 4 5
3 more votes to show rating
add to favorites
×
Save as Personal and add changes to this tab that will be seen only by you. Learn more ›
×
You can save this tab as Personal to edit and correct it or add notes. All changes will be seen only by you. Learn more »
launch autoscroll
font size
0
reset
guitar tuner
edit
Autoscroll
slow
fast
+/-
esc
set tempo
stop
Author
Difficulty
Tabbed by: 6METAL6BASSIST6
E-mail: petergriffinav@gmail.com

Tuning: EADG

Re-tabbed.

G|----------------------------------------------------------------|
D|----------------------------------------------------------------| x5
A|----------------------------------------------------------------|
E|5---5---7---7---5---5---7---7---5---5---7---7---5---5---7---7---|

0:23

G|----------------------------------------------------------------|
D|----------------------------------------------------------------| x4
A|----------------------------------------------------------------|
E|5---5---7---7---5---5---7---7---5---5---7---7---5---5---7---7---|

0:39

G|----------------------------------------------------------------|
D|----------------------------------------------------------------| x2
A|--------------------5---7-----------------------3---4---5---7---|
E|5-------5-------5-----------3-----------5-----------------------|

G|----------------------------------------------------------------|
D|----------------------------------------------------------------| x2
A|----------------------------------------------------------------|
E|5---5---7---7---5---5---7---7---5---5---7---7---5---5---7---7---|

0:55

G|----------------------------------------------------------------|
D|----------------------------------------------------------------| x4
A|----------------------------------------------------------------|
E|5---5---7---7---5---5---7---7---5---5---7---7---5---5---7---7---|

1:11

G|----------------------------------------------------------------|
D|----------------------------------------------------------------| x2
A|--------------------5---7-----------------------3---4---5---7---|
E|5-------5-------5-----------3-----------5-----------------------|

G|----------------------------------------------------------------|
D|----------------------------------------------------------------|
A|----------------------------------------------------------------|
E|5---5---7---7---5---5---7---7---5---5---7---7---5---5---7---7---|

1:23

G|----------------------------------------------------------------|
D|----------------------------------------------------------------|
A|7---------------------------7---5---------------------------5---|
E|------------5-------6---7-------------------3-------4---5-------|

G|----------------------------------------------------------------|
D|----------------------------------------------------------------|
A|7---------------------------7---5---------------------------5---|
E|------------5-------6---7-------------------3-------4---5-------|

G|----------------------------------------------------------------|
D|----------------------------------------------------------------|
A|7---------------------------7---5---5-----------------------5---|
E|------------5-------6---7-------------------3-------4---5-------|

G|----------------------------------------------------------------|
D|----------------------------------------------------------------|
A|7---6---5-----------------------7---6---5-----------------------|
E|------------7---6---5---6---7---------------7---6---5---6---7---|

G|----------------------------------------------------------------|
D|----------------------------------------------------------------| x2
A|----------------------------------------------------------------|
E|5---5---7---7---5---5---7---7---5---5---7---7---5---5---7---7---|

1:46

G|----------------------------------------------------------------|
D|----------------------------------------------------------------| x4
A|----------------------------------------------------------------|
E|5---5---7---7---5---5---7---7---5---5---7---7---5---5---7---7---|

2:01

G|----------------------------------------------------------------|
D|----------------------------------------------------------------|
A|------------------------5---7-------------------3---4---5---7---|
E|5-------5-------5---5-----------3-------5-----------------------|

G|----------------------------------------------------------------|
D|----------------------------------------------------------------|
A|--------------------5---7-----------------------3---4---5---7---|
E|5-------5-------5-----------3-----------5-----------------------|

G|----------------------------------------------------------------|
D|----------------------------------------------------------------|
A|----------------------------------------------------------------|
E|5---5---7---7---5---5---7---7---5---5---7---7---5---5---7---7---|

G|----------------------------------------------------------------|
D|----------------------------------------------------------------|
A|----------------------------------------------------------------|
E|5---5---7---7---5---5---7---7---5---5---7---7---5---5---7-------|

G|------------------------------------------------------------|
D|------------------------------------------------------------|
A|------------------------------------------------------------|
E|------------------------------------------------------------|

2:22

G|----------------------------------------------------------------|
D|----------------------------------------------------------------| x8
A|----------------------------------------------------------------|
E|5---5---7---7---5---5---7---7---5---5---7---7---5---5---7---7---|

2:52

G|----------------------------------------------------------------|
D|----------------------------------------------------------------| x4
A|----------------------------------------------------------------|
E|5---5---7---7---5---5---7---7---5---5---7---7---5---5---7---7---|

3:08

G|----------------------------------------------------------------|
D|----------------------------------------------------------------|
A|--------------------5---7-----------------------3---4---5---7---|
E|5-------5-------5-----------3-----------5-----------------------|

G|----------------------------------------------------------------|
D|----------------------------------------------------------------|
A|------------------/-7---------------------------3---4---5---7---|
E|5-------5---5---5-------0---3-----------5-----------------------|

3:15

G|----------------------------------------------------------------|
D|----------------------------------------------------------------| x11
A|----------------------------------------------------------------|
E|5---5---7---7---5---5---7---7---5---5---7---7---5---5---7---7---|

3:59

G|----------------------------------------------------------------|
D|----------------------------------------------------------------| x3
A|----------------------------------------------------------------|
E|5---5---7---7---5---5---7---7---5---5---7---7---5---5---7---7---|

G|----------------------------------------------------------------|
D|----------------------------------------------------------------|
A|----------------------------------------------------------------|
E|5---5---7---7---5---5---7---7---5---5---7---7---5---5---7---0---|

4:14

G|----------------------------------------------------------------|
D|----------------------------------------------------------------| x2
A|--------------------5---7-----------------------3---4---5---7---|
E|5-------5-------5-----------3-----------5-----------------------|

G|----------------------------------------------------------------|
D|----------------------------------------------------------------|
A|----------------------------------------------------------------|
E|5---5---7---7---5---5---7---7---5---5---7---7---5---5---7---7---|

G|------------------------------------------------------------|
D|------------------------------------------------------------|
A|------------------------------------------------------------|
E|5---5---7---7---5---5---7---7---5---5---7---7---5---5---7---|



4:44

G|------------------------------------------------------------------------|
D|------------------------------------------------------------------------| x2
A|6-6---6---------4---5---6-6---6---------4---5---6-6---6---------4---5---|
E|------------6-----------------------6-----------------------6-----------|

G|------------------------------------------------------------------------|
D|------------------------------------------------------------------------|
A|6-6---6---------4---5---6-6---6-----------------6-6---6---------4---5---|
E|------------6---------------------6-6-----------------------6-----------|

G|----------------------------------------------------|
D|----------------------------------------------------|
A|6-6---6-----------------6-6---6---------4---5---6---|
E|------------6-----------------------6---------------|

            
            
Suggest correction
Creating personal tab
Creating personal tab
You can edit any tab online and save it as your Personal.

You can edit, replace or remove any tab part or add personal notes – all changes will be seen only by you.

Personal tabs can be accessed anytime from any device, even offline.
Learn more »
Give kudos to tab author, rate the tab!
1 2 3 4 5
comments
print report bad tab
guest
You may want to rate the tab now too:
select rating
Wanna post a correction for this tab? Suggest correction