Oops, an error
Loading. Please wait.

Aint That Love bass

version 1
version 1

Whole song

37 views 1 this week
no commentswrite comment
1 2 3 4 5
2 more votes to show rating
add to favorites
×
Save as Personal and add changes to this tab that will be seen only by you. Learn more ›
×
You can save this tab as Personal to edit and correct it or add notes. All changes will be seen only by you. Learn more »
launch autoscroll
font size
0
reset
guitar tuner
edit
Autoscroll
slow
fast
+/-
esc
set tempo
stop
I am referencing this recording, https://www.youtube.com/watch?v=oF6j-U2X1iM ,
to write this tab.

4/4

  |       |       |       |        |       |       |       |        |       |       |       |        
g|--------------------------------|--------------------3-----------|--------------------------------|
d|----------------------0---------|--------3-----------------------|------------1-----------------1-|
a|1-----------------1-------------|--------------------------------|--------------------------------|
E|--------------------------------|--------------------------------|--------------------------------|
 
  |       |       |       |        |       |       |       |        |       |       |       |        
g|--------------------------------|--------------------------------|----3---------------3---2-------|
d|------------------------------2-|--------3---------4-----5-------|--------------------------------|
a|------1-----------------4-------|--------------------------------|----------------1---------------|
E|--------------------------------|--------------------------------|--------------------------------|
 
  |       |       |       |        |       |       |       |        |       |       |       |        
g|2---1-------0-------------------|------0-------------------------|--------------------------------|
d|------------------------0---0---|------------------------------4-|--5-----5-----------3-------2---|
a|--------------------------------|------------3-----------2-------|------------3-------------------|
E|--------------------------------|--------------------------------|--------------------------------|
 
  |       |       |       |        |       |       |       |        |       |       |       |        
g|------------------------------3-|------3-------------------3-----|--------------------------------|
d|3-----3-------4---5-------5-----|----------------3---------------|3-----0-------------------------|
a|--------------------------------|--------------------------------|------------1-----2-----3-------|
E|--------------------------------|--------------------------------|--------------------------------|
 
  |       |       |       |        |       |       |       |        |       |       |       |        
g|--------------------------------|--------------------------------|------------------0-0-----3-----|
d|------------1-------------------|--------------------2-----2-----|------3-----3-------------------|
a|----3---4---------------------1-|----------------4---------------|--------------------------------|
E|--------------------------------|--------------------------------|--------------------------------|
 
  |       |       |       |        |       |       |       |        |       |       |       |        
g|----------------------------0---|--------------------------------|----4---4-----2-3---------3-----|
d|------------------3-------------|----------------------4-----3---|----------5---------------------|
a|--------------------------------|----3---------------------------|------------------------------1-|
E|--------------------------------|--------------------------------|--------------------------------|
 
  |       |       |       |        |       |       |       |        |       |       |       |        
g|--------------------------------|--------------------------------|--------------0-----------3-0---|
d|--0-----------------1-----------|1---0-----2-----------------3---|--------------------------------|
a|------------4---4---------------|--------------------------------|--------------------------------|
E|--------------------------------|--------------------------------|--------------------------------|
 
  |       |       |       |        |       |       |       |        |       |       |       |        
g|--------------------------------|--------------------------------|----------------------------0---|
d|------------------------3-------|--------------------0-------1---|--------2-------3-----3---------|
a|----3-----------4---4-----------|0-----------1-------------------|--------------4-----------------|
E|--------------------------------|--------------------------------|--------------------------------|
 
  |       |       |       |        |       |       |       |        |       |       |       |        
e|------------------------0---0---|--------------------------------|----------------------3---------|
d|--------------------3-----------|------------------0-------------|----3---------------------------|
a|--------3-------4---------------|1-------------------------------|--------------------------------|
E|--------------------------------|--------------------------------|--------------------------------|
 
  |       |       |       |        |       |       |       |        |       |       |       |        
g|--------------------------------|--------------------------------|----------------------0-----1---|
d|----------1---------------------|--------------------------1-----|--2-----2-------4---------------|
a|1---3---------------------------|--1-----------------4-----------|--------------------------------|
E|--------------------------------|--------------------------------|--------------------------------|
 
  |       |       |       |        |       |       |       |        |       |       |       |        
g|3-----------3-3---2-2-------0-0-|--------------------------------|--3---0-------------------------|
d|--------------------------------|--4-5---------------------------|--------------------------------|
a|--------------------------------|----------------5---------------|--------------3-----------------|
E|--------------------------------|--------------------------------|--------------------------------|
 
  |       |       |       |        |       |       |       |        |       |       |       |        
g|0-------------------------------|------------------0---------1-3-|--------3-------------------2-0-|
d|----------------2-----------3---|--3---3-------------------------|----------------3---------------|
a|----------3---------------------|--------------------------------|--------------------------------|
E|--------------------------------|--------------------------------|--------------------------------|
 
  |       |       |       |        |       |       |       |        |       |       |       |        
g|--------------------------------|--------------------------------|--------------------------------|
d|3-------------------------------|--------1-----------------------|----------------2---------------|
a|--1-----------1-----1-------1---|------------------------1-------|--------------------------------|
E|--------------------------------|--------------------------------|--------------------------------|
 
  |       |       |       |        |       |       |       |        |       |       |       |        
g|----------------0---------------|--------------------------------|--------------------------------|
d|--------------------------------|--------------------------------|--------------------------------|
a|--------------------------------|--------------------------------|--------------------------------|
E|--------------------------------|--------------------------------|--------------------------------|
 
  |       |       |       |        |       |       |       |        |       |       |       |        
g|----------------3---------------|--------------------------------|--------------------------------|
d|--------------------------------|--------------------------------|--------------2-----------------|
a|--------------------------------|--------------------------------|--------------------------------|
E|--------------------------------|--------------------------------|--------------------------------|
 
  |       |       |       |        |       |       |       |        |       |       |       |        
g|----------------------0-----0---|----3-0-------------------------|--------------------------------|
d|------3-----------2-------------|----------1-------------------3-|--3-----------------------------|
a|--------------------------------|------------3-------------------|------------0---------1---------|
E|--------------------------------|--------------------------------|--------------------------------|
 
  |       |       |       |        |       |       |       |        |       |       |       |        
g|--------------------------------|----0---------------------------|----2---3-------5---------------|
d|0-------1-----------2-------3---|--------------------------------|5-----------------------5-------|
a|--------------------------------|----------------3-----4---------|--------------------------------|
E|--------------------------------|--------------------------------|--------------------------------|
 
  |       |       |       |        |       |       |       |        |       |       |       |        
g|--2---3-------------------------|--------------------------------|--------------------------------|
d|--------------------------------|------------------------------1-|------0-----------------0-------|
a|------------4-2-----1-----------|1---------1---3-------4---5-----|------------1-------------------|
E|--------------------------------|--------------------------------|--------------------------------|
 
  |       |       |       |        |       |       |       |        |       |       |       |        
g|--------------------------------|----1---3-----------3-----2-----|--2-----0-1---------------------|
d|----1-----2---2-3-3-------4-5---|--------------------------------|--------------------------------|
a|--------------------------------|--------------------------------|--------------------------------|
E|--------------------------------|--------------------------------|--------------------------------|
 
  |       |       |       |        |       |       |       |        |       |       |       |        
g|--------------------------------|--------------------------------|--------------------------------|
d|--------------------------------|--------------------------------|3-------3-----------------------|
a|--------------------------------|--------------------------------|--------------------------------|
E|--------------------------------|--------------------------------|--------------------------------|
 
  |       |       |       |        |       |       |       |        |       |       |       |        
g|3-------------------------------|--------------------------------|--------------------------------|
d|----------------3---------------|--------------------------------|--------------------------------|
a|--------------------------------|--------------------------------|--------------------------------|
E|--------------------------------|--------------------------------|--------------------------------|
 
  |       |       |       |        |       |       |       |        |       |       |       |        
g|--------------------------------|--------------------------------|3-------------------------------|
d|------------------------1-------|--------------------------------|--------------------------------|
a|--------------------------------|--------------------------------|--------------------------------|
E|--------------------------------|--------------------------------|--------------------------------|
 
  |       |       |       |        |       |       |       |        |       |       |       |        
g|--------------------------------|--------------------------------|--------------------------------|
d|--------------------------------|--------------------------------|------------------------3-------|
a|--------------------------------|--------------------------------|--------------------------------|
E|--------------------------------|--------------------------------|--------------------------------|
 
  |       |       |       |        |       |       |       |        |       |       |       |        
g|--------------------------------|--------------------------------|--------------------------------|
d|--------------------------------|--------------------------------|--------------------------------|
a|--------------------------------|1-------------------------------|--------------------------------|
E|--------------------------------|--------------------------------|--------------------------------|
 
  |       |       |       |        |       |       |       |        |       |       |       |        
g|0-------------------------------|--------------------------------|--------------------------------|
d|--------------------------------|--------------------------------|------------------------5-------|
a|--------------------------------|--------------------------------|--------------------------------|
E|--------------------------------|--------------------------------|--------------------------------|
 
  |       |       |       |        |       |       |       |        |       |       |       |        
g|--------------------------------|--------------------------------|--------------------------------|
d|--------------------------------|--------------------------------|--------------------------------|
a|--------------------------------|--------------------------------|--------------------------------|
E|--------------------------------|--------------------------------|--------------------------------|
 
  |       |       |       |        |       |       |       |        |       |       |       |        
g|--------------------------------|--------------------------------|0-------------------------------|
d|--------------------------------|----------------3---------------|--------------------------------|
a|--------------------------------|--------------------------------|--------------------------------|
E|--------------------------------|--------------------------------|--------------------------------|
 
  |       |       |       |        |       |       |       |        |       |       |       |        
g|--------------------------------|--------------------------------|--------------------------------|
d|--------------------------------|--------------------------------|--------------------------------|
a|--------------------------------|--------------------------------|--------------------------------|
E|--------------------------------|--------------------------------|--------------------------------|
 
  |       |       |       |        |       |       |       |        |       |       |       |        
g|--------------------------------|--------------------------------|--------------------------------|
d|--------------------------------|--------------------------------|--------------------------------|
a|--------------------------------|--------------------------------|------------------------3-------|
E|--------------------------------|--------------------------------|--------------------------------|
 
  |       |       |       |        |       |       |       |        |       |       |       |        
g|--------------------------------|3-------------------------------|--------------------------------|
d|--------------------------------|--------------------------------|--------------------------------|
a|--------------------------------|--------------------------------|--------------------------------|
E|--------------------------------|--------------------------------|--------------------------------|
 
  |       |       |       |        |       |       |       |        |       |       |       |        
g|--------------------------------|--------------------------------|--------------------------------|
d|----------------3-------3-------|5-------------------------------|----------------------2---------|
a|--------------------------------|--------------------------------|------------------------------0-|
E|--------------------------------|--------------------------------|--------------------------------|
 
  |       |       |       |        |       |       |       |        |       |       |       |        
g|--------------------------------|--------------------------------|--------------------------------|
d|--------------------------5-----|------------0-------------------|--3-----2-----------------------|
a|------1-----------4-------------|----------------3---------3-----|4-----------0-----------1-------|
E|--------------------------------|--------------------------------|----------------------------4---|
 
  |       |       |       |        |       |       |       |        |       |       |       |        
g|--------------------------------|--------------------------------|----------------------0-----0-0-|
d|----------5---------5-----------|--------------------3-----3---3-|--------------------------------|
a|--4-----------------------------|3-----------3-3-----------------|------1-----1---4---------------|
E|--------------------------------|--------------------------------|--------------------------------|
 
  |       |       |       |        |       |       |       |        |       |       |       |        
g|--------------------------------|------------------------------6-|--------------------------------|
d|--------------------------------|3-------------------------------|------5-----5-------4-----------|
a|--------4---3---------1---4-----|--------------------0---1-------|--------------------------------|
E|--------------------------------|----------4---------------------|----------------6---------7-----|
 
  |       |       |       |        
g|--------------------------------|
d|--------------------------------|
a|1-------------------------------|
E|--------------------------------|

            
            
Suggest correction
Creating personal tab
Creating personal tab
You can edit any tab online and save it as your Personal.

You can edit, replace or remove any tab part or add personal notes – all changes will be seen only by you.

Personal tabs can be accessed anytime from any device, even offline.
Learn more »
Give kudos to tab author, rate the tab!
1 2 3 4 5
comments
print report bad tab
guest
You may want to rate the tab now too:
select rating
Wanna post a correction for this tab? Suggest correction