Oops, an error
Loading. Please wait.

Aint That Love bass

version 2
version 2

Whole song

13 views 1 this week
no commentswrite comment
1 2 3 4 5
2 more votes to show rating
add to favorites
×
Save as Personal and add changes to this tab that will be seen only by you. Learn more ›
×
You can save this tab as Personal to edit and correct it or add notes. All changes will be seen only by you. Learn more »
launch autoscroll
font size
0
reset
guitar tuner
edit
Autoscroll
slow
fast
+/-
esc
set tempo
stop
[Verse]                                                             
G|--------------------------------|--------------3-----------------|
D|----------------0---------------|3---------------------0-0-------|
A|1-------------------------------|--------------------------------|
E|--------------------------------|--------------------------------|
 
                                                                    
G|--------------------------------|--------------------------------|
D|1-----------------------------1-|2-------------2-----------------|
A|----------------1---------------|--------------------1-----------|
E|--------------------------------|------------------------3-------|
 
[Chorus]                                                            
G|--------------------------------|------------------------0-------|
D|--------------------------------|--------------0-0---1-----------|
A|1-------------------------------|--------------------------------|
E|----------------4---------------|3---------------------------3---|
 
                                                                    
G|--------------------------------|--------------------------------|
D|--------------------------------|--------------------------------|
A|--------------------------------|--------------------------------|
E|3-----------3---3---------------|1-----------1-----------3---4---|
 
[Verse]                                                             
G|--------------------------------|--------------------------------|
D|--------------------------------|----------------------------0---|
A|1-----------------------1-------|1-----------1-------1---3-------|
E|----------------1-----------1---|--------------------------------|
 
                                                                    
G|--------------------------------|--------------------------------|
D|1-------------------------------|2-----------2-------------------|
A|----------------1---------------|--------------------1-----------|
E|--------------------------------|------------------------3-------|
 
[Chorus]                                                            
G|--------------------------------|--------------------------------|
D|--------------------------------|--------------------------------|
A|1-------------------------------|----------------------------0---|
E|----------------1-------3-------|1-----------1-------------------|
 
                                                                    
G|--------------------------------|--------------------------------|
D|----------------0-----------0---|1---------------2---------------|
A|1-----------1-------------------|--------------------------------|
E|--------------------------------|--------------------------------|
 
                                                                    
G|----------------0-------5-0-----|--------------------------------|
D|3---------------------------0---|----------------3---------------|
A|--------------------------------|3-----------------------0-------|
E|--------------------------------|--------------------------------|
 
                                                                    
G|--------------------------------|--------------------------------|
D|----------------1-------4-------|3-----------------------3-------|
A|1-------4-----------------------|--------0-------1---------------|
E|--------------------------------|--------------------------------|
 
[Verse]                                                             
G|--------------------------------|--------------3-----------------|
D|----------------0---------------|3---------------------0-0-------|
A|1-------------------------------|--------------------------------|
E|--------------------------------|--------------------------------|
 
                                                                    
G|--------------------------------|--------------------------------|
D|1-----------------------------1-|2-------------2-----------------|
A|----------------1---------------|--------------------1-----------|
E|--------------------------------|------------------------3-------|
 
[Chorus]                                                            
G|--------------------------------|------------------------0-------|
D|--------------------------------|--------------0-0---1-----------|
A|1-------------------------------|--------------------------------|
E|----------------4---------------|3---------------------------3---|
 
                                                                    
G|--------------------------------|--------------------------------|
D|--------------------------------|--------------------------------|
A|--------------------------------|--------------------------------|
E|3-----------3---3---------------|1-----------1-----------3---4---|
 
[Verse]                                                             
G|--------------------------------|--------------------------------|
D|--------------------------------|----------------------------0---|
A|1-----------------------1-------|1-----------1-------1---3-------|
E|----------------1-----------1---|--------------------------------|
 
                                                                    
G|--------------------------------|--------------------------------|
D|1-------------------------------|2-----------2-------------------|
A|----------------1---------------|--------------------1-----------|
E|--------------------------------|------------------------3-------|
 
[Chorus]                                                            
G|--------------------------------|--------------------------------|
D|--------------------------------|--------------------------------|
A|1-------------------------------|--------------------3-------0---|
E|----------------1-------3-------|1-----------1-------------------|
 
                                                                    
G|--------------------------------|--------------------------------|
D|----------------0-----------0---|1---------------2---------------|
A|1-----------1-------------------|--------------------------------|
E|--------------------------------|--------------------------------|
 
                                                                    
G|----------------0-------5-0-----|--------------------------------|
D|3---------------------------0---|----------------3---------------|
A|--------------------------------|3-----------------------0-------|
E|--------------------------------|--------------------------------|
 
                                                                    
G|--------------------------------|--------------------------------|
D|----------------1-------4-------|3-------------------------------|
A|1-------4-----------------------|--------0-------1-------0-------|
E|--------------------------------|--------------------------------|
 
[Sax Solo]                                                          
G|--------------------------------|--------------------------------|
D|--------------------------------|--------------------------------|
A|1-------3---------------1-------|1-------------1-------1---3-----|
E|----------------4---------------|--------------------------------|
 
                                                                    
G|--------------------------------|--------------------------------|
D|1-----------------------0-------|2-------------2---------0---2---|
A|----------------1---------------|--------------------1-----------|
E|--------------------------------|--------------------------------|
 
                                                                    
G|3-------------3-1-------------1-|0-------------------------------|
D|--------------------------------|------------0-------3-----------|
A|--------------------------------|------------------------0---1---|
E|--------------------------------|--------------------------------|
 
                                                                    
G|----------------0---------------|------------------------0-------|
D|----------------------------0---|3-----------3-3-----3-----------|
A|3-----------------------3-------|--------------------------------|
E|--------------------------------|--------------------------------|
 
                                                                    
G|3-------------------------------|--------------------------------|
D|--------------------------------|----------------------------0---|
A|------------------------1-------|1-----------1-------1---3-------|
E|----------------1-----------1---|--------------------------------|
 
                                                                    
G|--------------------------------|--------------------------------|
D|1-------------------------------|2-----------2-------------------|
A|----------------1---------------|--------------------1-----------|
E|--------------------------------|------------------------3-------|
 
                                                                    
G|--------------------------------|--------------------------------|
D|--------------------------------|--------------------------------|
A|1-------------------------------|--------------------3-------0---|
E|----------------1-------3-------|1-----------1-------------------|
 
                                                                    
G|--------------------------------|--------------------------------|
D|----------------0-----------0---|1---------------2---------------|
A|1-----------1-------------------|--------------------------------|
E|--------------------------------|------------------------1-------|
 
[Bridge]                                                            
G|3-------------------------------|--------------------------------|
D|--------------------------------|3-----------------------4-------|
A|--------------------------------|--------------------------------|
E|--------------------------------|--------------------------------|
 
                                                                    
G|3-------------------------------|--------------------------------|
D|--------------------------------|4-----------------------4-------|
A|--------------------------------|--------------------------------|
E|--------------------------------|--------------------------------|
 
                                                                    
G|3-------------------------------|--------------------------------|
D|--------------------------------|4-------------------------------|
A|--------------------------------|--------------------------------|
E|--------------------------------|--------------------------------|
 
                                                                    
G|3-------------------------------|--------------------------------|
D|--------------------------------|4-------------------------------|
A|--------------------------------|--------------------------------|
E|--------------------------------|--------------------------------|
 
                                                                    
G|3-------------------------------|--------------------------------|
D|--------------------------------|4-----------------------4-------|
A|--------------------------------|--------------------------------|
E|--------------------------------|--------------------------------|
 
[Chorus]                                                            
G|3-------------------------------|--------------------3-----------|
D|--------------------------------|4-----------------------4-------|
A|--------------------------------|--------------------------------|
E|--------------------------------|--------------------------------|
 
                                                                    
G|----------------0-------5-0-----|--------------------------------|
D|3---------------------------0---|----------------3---------------|
A|--------------------------------|3-----------------------0-------|
E|--------------------------------|--------------------------------|
 
                                                                    
G|--------------------------------|--------------------------------|
D|----------------1-------4-------|3-------------------------------|
A|1-------4-----------------------|--------0-------1-------0-------|
E|--------------------------------|--------------------------------|
 
[Outro]                                                             
G|--------------------------------|--------------------------------|
D|--------------------------------|--------------------------------|
A|1-----------------------4---1---|3-------------------------------|
E|------------3---3---------3-----|----------------3---------------|
 
                                                                    
G|------------0-------------------|--------------------------------|
D|--------0-------3-----------0---|----------------3---------------|
A|1-------------------------------|3-------------------------------|
E|--------------------------------|--------------------3-----------|
 
                                                                    
G|--------------0-----------------|0-------------------------------|
D|--------------------------------|------------0---3---------------|
A|1-------------------------------|--------------------------------|
E|--------------------------------|--------------------------------|
 
                                                                    
G|------------0-------------------|--------------------------------|
D|--------0-------3-----------0---|----------------3-------3-------|
A|1-------------------------------|3-------------------------------|
E|--------------------------------|--------------------------------|
 
                                   
G|3-----------0-------------------|
D|--------0-----------------------|
A|--------------------------------|
E|--------------------------------|
 

            
            
Suggest correction
Creating personal tab
Creating personal tab
You can edit any tab online and save it as your Personal.

You can edit, replace or remove any tab part or add personal notes – all changes will be seen only by you.

Personal tabs can be accessed anytime from any device, even offline.
Learn more »
Give kudos to tab author, rate the tab!
1 2 3 4 5
comments
print report bad tab
guest
You may want to rate the tab now too:
select rating
Wanna post a correction for this tab? Suggest correction