Oops, an error
Loading. Please wait.

Hit The Road Jack bass

version 1
version 1

Whole song

Interactive

52,639 views 102 this week
4 commentsread comments
1 2 3 4 5
x 16
add to favorites
×
Save as Personal and add changes to this tab that will be seen only by you. Learn more ›
×
You can save this tab as Personal to edit and correct it or add notes. All changes will be seen only by you. Learn more »
launch autoscroll
font size
0
reset
guitar tuner
edit
Autoscroll
slow
fast
+/-
esc
set tempo
stop
I figured out how to play this by just messing around. Play this over and over
for the whole song. You can also add your own vareations of how you hit the
string. It goes mildly slow/fast.


[Verse]

            G|-5-3-1-0-3-5-3-1-0-3-5-3-1-0-3-5-3-1-0-3-5-3-1-0-3-|
            D|---------------------------------------------------|
            A|---------------------------------------------------|
            D|---------------------------------------------------|


        verse:hold the notes short. no long notes should be played

          you could also play it like this

           G|--3-1-0-3--3-1-0-3--3-1-0-3--3-1-0-3--3-1-0-3--3-1-0-3---|
           D|-1--------1--------1--------1--------1--------1--------1-|
           A|---------------------------------------------------------|
           D|---------------------------------------------------------|

           one more way you could play this song

           G|-15-13-11-10-13-15-13-11-10-15-13-11-10-15-13-11-10-|
           D|----------------------------------------------------|
           A|----------------------------------------------------|
           D|----------------------------------------------------|

   THESE ARE ALL THE WAYS I COULD COME UP WITH. PLAY THEM ON THE STRINGS
YOU WANT BUT THIS IS HOW IT GOES.

            
            
Suggest correction
Creating personal tab
Creating personal tab
You can edit any tab online and save it as your Personal.

You can edit, replace or remove any tab part or add personal notes – all changes will be seen only by you.

Personal tabs can be accessed anytime from any device, even offline.
Learn more »
comments
print report bad tab
4 comments total. Showing first comments.
0 reply
romm5 10 Dec 24, 2007 09:50 AM

Ain't it (2nd variation) more like ::

G:--3-1-0-3--3-1-0-3--3-1-0-3--3-1-0-3--3-1-0-3--3-1-0-3-

D:-0--------0--------0--------0--------0--------0--------

A:-------------------------------------------------------

D:-------------------------------------------------------

0 reply
romm5 10 Dec 24, 2007 09:53 AM

no, it ain't. sorry =)

0 reply
Mongoose87 40 Jan 22, 2008 03:25 PM

G:-------------------------------------------------------

D:-------------------------------------------------------

A:-3-1--------1---3-1------------------------------------

E:------4--3------------4--3-----------------------------



is another way you could play it.

guest
Wanna post a correction for this tab? Suggest correction