Oops, an error
Loading. Please wait.
We have an official Hit The Road Jack tab made by UG professional guitarists. Check out the tab »
×
21,612 views 60 this week
1 commentread comment
1 2 3 4 5
x 11
add to favorites
×
Save as Personal and add changes to this tab that will be seen only by you. Learn more ›
×
You can save this tab as Personal to edit and correct it or add notes. All changes will be seen only by you. Learn more »
launch autoscroll
font size
0
reset
guitar tuner
backing track
0:00
0:00
edit
Autoscroll
slow
fast
+/-
esc
set tempo
stop
Author
Difficulty
The bass part of the song (Remastered Version) actually is pretty simple, but you have
to bring a little swing feeling into it by adding dead notes (x) or double the note you
played before. I didn't write all variations in chorus and verse you can hear in that 
song - there are too many! 
 
[Intro] x2
  1  2  3  4   1  2  3  4
G|------------|------------|
D|6-----4-----|------------|
A|------------|7-----6-----|
E|------------|------------|
   G#    F#     E     D#
 
[Chorus] x2
  1  2  3  4   1  2  3  4   1  2  3  4   1  2  3  4
G|------------|------------|------------|------------|
D|6-----4-----|------------|6----x4-----|-----------4|
A|-----------x|7----x6-----|-----------x|7----x6-x6--|
E|------------|------------|------------|------------|

G|------------|------------|------------|------------|
D|6-----4-----|------------|6-----4-----|-----------4|
A|------------|7----x6-----|------------|7----x6-x6--|
E|------------|------------|------------|------------|
 
[Verse] x2
  1  2  3  4   1  2  3  4   1  2  3  4   1  2  3  4
G|------------|------------|------------|------------|
D|6-----4-----|-----------x|6-----4-----|-----------4|
A|-----------x|7----x6-----|-----------x|7----x6-x6--|
E|------------|------------|------------|------------|

[Chorus] x2
  1  2  3  4   1  2  3  4   1  2  3  4   1  2  3  4
G|------------|------------|------------|------------|
D|6-----4-----|------------|6----x4-----|-----------4|
A|-----------x|7----x6-----|-----------x|7----x6-x6--|
E|------------|------------|------------|------------|

G|------------|------------|------------|------------|
D|6-----4-----|------------|6-----4-----|-----------4|
A|------------|7----x6-----|------------|7----x6-x6--|
E|------------|------------|------------|------------|

[Verse] x2
  1  2  3  4   1  2  3  4   1  2  3  4   1  2  3  4
G|------------|------------|------------|------------|
D|6-----4-----|-----------x|6-----4-----|-----------4|
A|-----------x|7----x6-----|-----------x|7----x6-x6--|
E|------------|------------|------------|------------|

[Chorus] x2
  1  2  3  4   1  2  3  4   1  2  3  4   1  2  3  4
G|------------|------------|------------|------------|
D|6-----4-----|------------|6----x4-----|-----------4|
A|-----------x|7----x6-----|-----------x|7----x6-x6--|
E|------------|------------|------------|------------|

G|------------|------------|------------|------------|
D|6-----4-----|------------|6-----4-----|-----------4|
A|------------|7----x6-----|------------|7----x6-x6--|
E|------------|------------|------------|------------|

[Ending]
  1  2  3  4   1  2  3  4   1  2  3  4   1  2  3  4
G|------------|------------|------------|------------|
D|6-----4-----|------------|6----x4-----|-----------4|
A|-----------x|7----x6-----|-----------x|7----x6-x6--|
E|------------|------------|------------|------------|

G|------------|------------|------------|------------|
D|6-----4-----|------------|6-----4-----|-----------4|
A|------------|7----x6-----|------------|7----x6-x6--|
E|------------|------------|------------|------------|



************************************

| x  Dead note 

************************************

            
            
Suggest correction
Creating personal tab
Creating personal tab
You can edit any tab online and save it as your Personal.

You can edit, replace or remove any tab part or add personal notes – all changes will be seen only by you.

Personal tabs can be accessed anytime from any device, even offline.
Learn more »
comments
print report bad tab
1 comment total.
-1 reply
Seyjii 10 Apr 24, 2017 03:06 PM

hi
penid\s

guest
You may want to rate the tab now too:
select rating
Wanna post a correction for this tab? Suggest correction