Oops, an error
Loading. Please wait.

Whatd I Say bass

version 1
version 1

Whole song

Interactive

61 views 6 this week
no commentswrite comment
1 2 3 4 5
1 last vote to show rating
add to favorites
×
Save as Personal and add changes to this tab that will be seen only by you. Learn more ›
×
You can save this tab as Personal to edit and correct it or add notes. All changes will be seen only by you. Learn more »
launch autoscroll
font size
0
reset
guitar tuner
edit
Autoscroll
slow
fast
+/-
esc
set tempo
stop
What’d I Say
Track by the late Jazz legend Ray Charles in 1959. Failed to chart in UK.
Tab by bass50611.  My tab is not as original but sequences of riffs to 
Cover the Intro and Verse 1.  The song goes around and around and one can
Mix and Match the riffs I have tabbed.

Intro: (Played Under Keyboard)
G|-------------------------------------------------------------------|
D|-------------------------------------------------------------------|
A|-7--------7--------7--------7---------------------------7--------7-|
E|-------------------------------------5--------5--------------------|

G|------------------------------|
D|------------------------------|
A|-------------------7--------7-|
E|-7--------5-------------------|

Intro Solo Riff 1: (Everybody In)
G|---------------------------------------------------------------|
D|---9--6-------9--6-------9--6-------9--6-----------------------|
A|-7------9---7------9---7------9---7------9-----7--4-------7--4-|
E|---------------------------------------------5------7---5------|

                                                                    (Break)
G|----------------------------------------------------------------------|
D|---9--6-------9--6----------------------------------------------------|
A|-7------9---7------9-----9--6-------7--4-----7--5--4--3--2--0-2-2---7-|
E|-----------------------7------9---5------7----------------------------|

Riff 2:
 (Pause)
G|-------------------------------------------------------------------|
D|------------------------------------6--9--6----6--9--6-------------|
A|-7----------4--7--4-----4--7--4---7----------7-------------6--9--6-|
E|----------5-----------5----------------------------------7---------|

                                     (Break)
G|--------------------------------------|
D|--------------------------------------|
A|---4--7--4---7--5--4--3--2--0-2-2---7-|
E|-5------------------------------------|

Riff 3:
 (Pause)
G|---------------------------------------6---------6----------------------|
D|------------------4---------4-----6--9------6--9------------6---------4-|
A|-7-----------4--7------4--7-----7---------7------------6--9------4--7---|
E|-----------5---------5-------------------------------7---------5--------|

                      (Break)
G|-----------------------|
D|-----------------------|
A|-7--5--4--3--2--2-2--7-|
E|-----------------------|

 (Pause)
G|------------------------------------------------------------------------|
D|--------------------------------------------9--6-------9--6-------------|
A|-7-------7--5--4------7--4-------7--4-----7------9---7------9----9--6---|
E|-----------------7--5------7---5------7------------------------7------9-|

                                (Break)
G|---------------------------------|
D|---------------------------------|
A|---7--4----7--5--4--3--2--2-2--7-|
E|-5------7------------------------|

(Pause)
G|-------------------------------------------------------------------|
D|------------------------------------6--9--6----6--9--6-------------|
A|-7----------4--7--4-----4--7--4---7----------7-------------6--9--6-|
E|----------5-----------5----------------------------------7---------|

                                     (Break)
G|--------------------------------------|
D|--------------------------------------|
A|---4--7--4---7--5--4--3--2--0-2-2---7-|
E|-5------------------------------------|

Riff 5:
G|-------------------------------------------------------------------6-|
D|-2-2-2-2--4-4-4-4--5-5-5-5--6-6-6-6--7------4----7------4-----6--9---|
A|---------------------------------------4--7--------4--7-----7--------|
E|---------------------------------------------5-----------------------|

                                            (Break)
G|---------------------------------------------|
D|--------6---------4--------------------------|
A|---6--9------4--7-----7--5--4--3--2--2-2---7-|
E|-7---------5---------------------------------|

Verse:
  (Pause)
G|---------------------------------------6---------6----------------------|
D|------------------4---------4-----6--9------6--9------------6---------4-|
A|-7-----------4--7------4--7-----7---------7------------6--9------4--7---|
E|-----------5---------5-------------------------------7---------5--------|

                        (Break)
G|------------------------|
D|------------------------|
A|-7--5--4--3--2--2-2---7-|
E|------------------------|

(Pause)
G|-------------------------------------------------------------------|
D|------------------------------------6--9--6----6--9--6-------------|
A|-7----------4--7--4-----4--7--4---7----------7-------------6--9--6-|
E|----------5-----------5----------------------------------7---------|

                                     (Break)
G|--------------------------------------|
D|--------------------------------------|
A|---4--7--4---7--5--4--3--2--0-2-2---7-|
E|-5------------------------------------|

 (Pause)
G|---------------------------------------6---------6----------------------|
D|------------------4---------4-----6--9------6--9------------6---------4-|
A|-7-----------4--7------4--7-----7---------7------------6--9------4--7---|
E|-----------5---------5-------------------------------7---------5--------|

                        (Break)
G|-------------------------|
D|-------------------------|
A|-7--5--4--3--2---2-2---7-|
E|-------------------------|

(Pause)
G|--------------------------------------------------------------|
D|-------------------------------------------6--9--6----6--9--6-|
A|-7-----7-----7-----4--7--4-----4--7--4---7----------7---------|
E|-----------------5-----------5--------------------------------|

                                               (Break)
G|--------------------------------------------------|
D|--------------------------------------------------|
A|---6--9--6-----4--7--4---7--5--4--3--2--0-2-2---7-|
E|-7-----------5------------------------------------|

  (Pause)
G|------------------------------------------------------------------------|
D|--------------------------------------------9--6-------9--6-------------|
A|-7-------7--5--4------7--4-------7--4-----7------9---7------9----9--6---|
E|-----------------7--5------7---5------7------------------------7------9-|

                                (Break)
G|----------------------------------|
D|----------------------------------|
A|---7--4----7--5--4--3--2--2-2---7-|
E|-5------7-------------------------|

G|-------------------------------------------------------------------6-|
D|-2-2-2-2--4-4-4-4--5-5-5-5--6-6-6-6--7------4----7------4-----6--9---|
A|---------------------------------------4--7--------4--7-----7--------|
E|---------------------------------------------5-----------------------|

                                            (Break)
G|---------------------------------------------|
D|--------6---------4--------------------------|
A|---6--9------4--7-----7--5--4--3--2---2-2--7-|
E|-7---------5---------------------------------|

AND THAT IS BASICALLY IT. JUST MIX AND MATCH THROUGHOUT THE SONG


Suggest correction
Creating personal tab
Creating personal tab
You can edit any tab online and save it as your Personal.

You can edit, replace or remove any tab part or add personal notes – all changes will be seen only by you.

Personal tabs can be accessed anytime from any device, even offline.
Learn more »
Give kudos to tab author, rate the tab!
1 2 3 4 5
comments
print report bad tab
guest
You may want to rate the tab now too:
select rating
Wanna post a correction for this tab? Suggest correction