Oops, an error
Loading. Please wait.

Whatd I Say Pt 1 bass

version 1
version 1

Whole song

  • This is the upright bass that is in the song, not ... Show more
25 views 1 this week
no commentswrite comment
1 2 3 4 5
1 last vote to show rating
add to favorites
×
Save as Personal and add changes to this tab that will be seen only by you. Learn more ›
×
You can save this tab as Personal to edit and correct it or add notes. All changes will be seen only by you. Learn more »
launch autoscroll
font size
0
reset
guitar tuner
edit
Autoscroll
slow
fast
+/-
esc
set tempo
stop
About this tab version
This is the upright bass that is in the song, not the left hand of Ray Charles on piano. Was this info helpful? Yes No

Ray Charles- What'd I Say (part 1)
Tabbed by electricbunny

4/4

[Electric Piano Intro] 
      
G|--------------------------------|--------------------------------|
D|--------------------------------|--------------------------------|
A|--------------------------------|--------------------------------| X6
E|--------------------------------|--------------------------------|
 
[Intro Whole Band]

G|--------------------------------|--------------------------------|
D|2-----------2---------------0---|2-----------2---------------0---|
A|----------------2-------2-------|----------------2-------2-------|
E|--------------------------------|--------------------------------|
 
     
G|--------------------------------|--------------------------------|
D|2-----------2---------------0---|2-----------2---------------0---|
A|----------------2-------2-------|----------------2---------------|
E|--------------------------------|--------------------------------|
 
       
G|----------------0-------2-------|----------------0---0---2---2---|
D|--------2-----------------------|--------2---2-------------------|
A|0---------------------------0---|0-------------------------------|
E|--------------------------------|--------------------------------|
 
      
G|--------------------------------|--------------------------------|
D|2-----------2---0-------0---0---|2-----------0-------0---0---0---|
A|--------------------------------|--------------------------------|
E|--------------------------------|--------------------------------|
 
      
G|----------------2-------4-------|--------------------------------|
D|--------4-------------------4---|----------------2-------2---2---|
A|2-------------------------------|0-------3-----------------------|
E|--------------------------------|--------------------------------|
 
        
G|--------------------------------|--------------------------------|
D|--------2-------0-----0---------|--------------------------------|
A|---------------------------3----|2---2-------2-----------2---2---|
E|--------------------------------|--------------------------------|
 

[Piano Break]
       
G|--------------------------------|--------------------------------|
D|--------------------------------|--------------------------------|
A|--------------------------------|--------------------------------|
E|0-------------------------------|--------------------------------|
 
       
G|--------------------------------|--------------------------------|
D|--------------------------------|--------------------------------|
A|--------------------------------|--------------------------------|
E|--------------------------------|--------------------------------|
 
      
G|2-----------------------2---2---|------------------------2-------|
D|--------2-------4---------------|--------2---2---4---4-----------|
A|--------------------------------|0-------------------------------|
E|--------------------------------|--------------------------------|
 
      
G|--------------------------------|--------------------------------|
D|2-----------2-------------------|2-----------------------2---2---|
A|----------------2-------2---2---|------------2-------------------|
E|--------------------------------|--------------------------------|
 
        
G|------------2---4-------4---4---|2-------------------------------|
D|--------4-----------------------|------------------------2---2---|
A|--------------------------------|----------------2---------------|
E|--------------------------------|--------------------------------|
 
        
G|--------------------------------|--------------------------------|
D|--------2-------0-------0-------|--------------------------------|
A|--------------------------------|2-------2---2-------2-----------|
E|--------------------------------|--------------------------------|
 

[Verse  1]
        
G|--------------------------------|--------------------------------|
D|2-------------------------------|--------------------------------|
A|--------------------------------|--------------------------------|
E|--------------------------------|--------------------------------|
 
        
G|--------------------------------|--------------------------------|
D|2-------------------------------|--------------------------------|
A|--------------------------------|--------------------------------|
E|--------------------------------|--------------------------------|
 
[Chorus 1]
         
G|2-----------------------2---2---|------------------------2---2---|
D|--------2-------4---------------|--------2---2---4---4-----------|
A|--------------------------------|0-------------------------------|
E|--------------------------------|--------------------------------|
 
        
G|--------------------------------|--------------------------------|
D|2-----------2-------------------|2-------2---2---2---2---2---2---|
A|----------------2-------2---2---|--------------------------------|
E|--------------------------------|--------------------------------|
 
       
G|----------------4-------4-------|--------------------------------|
D|--------4-----------------------|2-----------------------2---2---|
A|--------------------------------|--------3-------2---------------|
E|--------------------------------|--------------------------------|
 
        
G|--------------------------------|--------------------------------|
D|--------2-------0-------0-------|--------------------------------|
A|--------------------------------|2-------2---2-------2-----------|
E|--------------------------------|--------------------------------|
 
[Verse 2]
       
G|--------------------------------|--------------------------------|
D|2-------------------------------|--------------------------------|
A|--------------------------------|--------------------------------|
E|--------------------------------|--------------------------------|
 
       
G|--------------------------------|--------------------------------|
D|2-------------------------------|--------------------------------|
A|--------------------------------|--------------------------------|
E|--------------------------------|--------------------------------|
 
[Chourus 2]
        
G|2-----------------------2---2---|------------------------2---2---|
D|--------2-------4---------------|--------2---2---4---4-----------|
A|--------------------------------|0-------------------------------|
E|--------------------------------|--------------------------------|
 
       
G|--------------------------------|--------------------------------|
D|2-----------2-------------------|2-------2-----------2-----------|
A|----------------2-------2---2---|----------------2---------------|
E|--------------------------------|--------------------------------|
 
        
G|----------------2-------4-------|--------------------------------|
D|--------4-----------------------|------------------------2---2---|
A|2---------------------------2---|0-------------------------------|
E|--------------------------------|--------------------------------|
 
        
G|--------------------------------|--------------------------------|
D|--------2-------0-------0-------|--------------------------------|
A|--------------------------------|2-------2---2-------2-----------|
E|--------------------------------|--------------------------------|
 
[Verse 3]
        
G|--------------------------------|--------------------------------|
D|2-------------------------------|--------------------------------|
A|--------------------------------|--------------------------------|
E|--------------------------------|--------------------------------|
 
        
G|--------------------------------|--------------------------------|
D|2-------------------------------|--------------------------------|
A|--------------------------------|--------------------------------|
E|--------------------------------|--------------------------------|
 
[Chorus 3]
       
G|2-----------------------2---2---|------------------------2---2---|
D|--------2-------4---------------|--------2---2---4---4-----------|
A|--------------------------------|0-------------------------------|
E|--------------------------------|--------------------------------|
 
        
G|--------------------------------|--------------------------------|
D|2-----------2-------------------|2-------2---2---2---2---2---2---|
A|----------------2-------2---2---|--------------------------------|
E|--------------------------------|--------------------------------|
 
        
G|----------------4-------4-------|--------------------------------|
D|--------4-----------------------|------------------------2---2---|
A|2-------------------------------|0-------3-----------------------|
E|--------------------------------|--------------------------------|
 
        
G|--------------------------------|--------------------------------|
D|--------2-------0-------0-------|--------------------------------|
A|--------------------------------|2-------2---2-------2-----------|
E|--------------------------------|--------------------------------|
 
[Break]
        
G|--------------------------------|0---0---0---0---0---0---0---0---|
D|2---2---2---2---2---2---2---2---|--------------------------------|
A|--------------------------------|--------------------------------|
E|--------------------------------|--------------------------------|
 
        
G|4---4---4---4---4---4---4---4---|------------2-------0-----------|
D|--------------------------------|------------------------2-------|
A|--------------------------------|--------------------------------|
E|--------------------------------|--------------------------------|
 
       
G|2-----------------------2---2---|------------------------2---2---|
D|--------2---2---4---4-----------|--------2---2---4---4-----------|
A|--------------------------------|0-------------------------------|
E|--------------------------------|--------------------------------|
 
        
G|--------------------------------|--------------------------------|
D|2-----------2-------------------|2-------2---2-------2---2---2---|
A|----------------2-------2---2---|--------------------------------|
E|--------------------------------|--------------------------------|
 
       
G|----------------4-------4-------|--------------------------------|
D|--------4-----------------------|------------------------2---2---|
A|2-------------------------------|0-------3-----------------------|
E|--------------------------------|--------------------------------|
 
       
G|--------------------------------|--------------------------------|
D|--------2-------0-------0-------|--------------------------------|
A|--------------------------------|2-------2---2-------2-----------|
E|--------------------------------|--------------------------------|
 
[Verse 4]
        
G|--------------------------------|--------------------------------|
D|--------------------------------|--------------------------------|
A|--------------------------------|--------------------------------|
E|--------------------------------|--------------------------------|
 
       
G|--------------------------------|--------------------------------|
D|--------------------------------|--------------------------------|
A|--------------------------------|--------------------------------|
E|--------------------------------|--------------------------------|
 
[Chours 4]
       
G|2-----------------------2---2---|------------------------2---2---|
D|--------2-------4---------------|--------2---2---4---4-----------|
A|--------------------------------|0-------------------------------|
E|--------------------------------|--------------------------------|
 
        
G|--------------------------------|--------------------------------|
D|2-----------2-------------------|2-------2-----------2-----------|
A|----------------2-------2---2---|----------------2---------------|
E|--------------------------------|--------------------------------|
 
        
G|----------------2-------4-------|--------------------------------|
D|--------4-----------------------|------------------------2---2---|
A|2---------------------------2---|0-------3-----------------------|
E|--------------------------------|--------------------------------|
 
       
G|--------------------------------|--------------------------------|
D|--------2-------0-------0-------|--------------------------------|
A|--------------------------------|2-------2---2-------2-----------|
E|--------------------------------|--------------------------------|
 
[Verse 5]
       
G|--------------------------------|--------------------------------|
D|2-------------------------------|--------------------------------|
A|--------------------------------|--------------------------------|
E|--------------------------------|--------------------------------|
 
        
G|--------------------------------|--------------------------------|
D|2-------------------------------|----------------------------2---|
A|--------------------------------|--------------------------------|
E|--------------------------------|--------------------------------|
 
[Chorus 5]
       
G|2-----------------------2---2---|------------------------2---2---|
D|--------2-------4---------------|--------2---2---4---4-----------|
A|--------------------------------|0-------------------------------|
E|--------------------------------|--------------------------------|
 
        
G|--------------------------------|--------------------------------|
D|2-----------2-------------------|2-------2-----------2---2---2---|
A|----------------2-------2---2---|----------------2---------------|
E|--------------------------------|--------------------------------|
 
        
G|----------------2-------4-------|--------------------------------|
D|--------4-----------------------|------------------------2---2---|
A|2---------------------------2---|0-----------0---0---------------|
E|--------------------------------|--------------------------------|
 
       
G|--------------------------------|--------------------------------|
D|--------2-------0-------0-------|0-------------------------------|
A|--------------------------------|--------2---------------2-------|
E|--------------------------------|--------------------------------|
 
[Outro]
        
G|--------------------------------|--------------------------------|
D|2-----------------------0---0---|2-----------2---------------0---|
A|----------------2---------------|----------------2---2---2-------|
E|--------------------------------|--------------------------------|
 
         
G|--------------------------------|--------------------------------|
D|2-----------------------0---0---|2-------2-------2---2---2---2---|
A|----------------2---------------|--------------------------------|
E|--------------------------------|--------------------------------|
 
       
G|----------------0-------2-------|----------------0---0-----------|
D|--------2-----------------------|--------2---2-------------------|
A|0---------------------------0---|0-----------------------0---0---|
E|--------------------------------|--------------------------------|
 
         
G|--------------------------------|--------------------------------|
D|2---------------0-------0---0---|2---------------0---0---0---0---|
A|--------------------------------|--------------------------------|
E|--------------------------------|--------------------------------|
 
         
G|----------------2-------4-------|----------------0---------------|
D|--------4-----------------------|--------2---------------2---2---|
A|2-------------------------------|0-------------------------------|
E|--------------------------------|--------------------------------|
 
         
G|--------------------------------|--------------------------------|
D|2---------------0-------1---1---|2-------------------------------|
A|--------------------------------|--------------------------------|
E|--------------------------------|--------------------------------|
 
        
G|--------------------------------|--------------------------------|
D|2-----------------------0---0---|2-----------2---------------0---|
A|----------------2---------------|----------------2---2---2-------|
E|--------------------------------|--------------------------------|
 
         
G|--------------------------------|--------------------------------|
D|2-----------------------0---0---|2-------2-------2---2---2---2---|
A|----------------2---------------|--------------------------------|
E|--------------------------------|--------------------------------|
 
       
G|----------------0-------2-------|----------------0---0-----------|
D|--------2-----------------------|--------2---2-------------------|
A|0---------------------------0---|0-----------------------0---0---|
E|--------------------------------|--------------------------------|
 
      
G|--------------------------------|--------------------------------|
D|2---------------0-------0---0---|2---------------0---0---0---0---|
A|--------------------------------|--------------------------------|
E|--------------------------------|--------------------------------|
 
        
G|----------------2-------4-------|----------------0---------------|
D|--------4-----------------------|--------2---------------2---2---|
A|2-------------------------------|0-------------------------------|
E|--------------------------------|--------------------------------|
 
       
G|--------------------------------|--------------------------------|
D|2---------------0-------1---1---|2-------------------------------|
A|--------------------------------|--------------------------------|
E|--------------------------------|--------------------------------|
Suggest correction
Creating personal tab
Creating personal tab
You can edit any tab online and save it as your Personal.

You can edit, replace or remove any tab part or add personal notes – all changes will be seen only by you.

Personal tabs can be accessed anytime from any device, even offline.
Learn more »
Give kudos to tab author, rate the tab!
1 2 3 4 5
comments
print report bad tab
guest
You may want to rate the tab now too:
select rating
Wanna post a correction for this tab? Suggest correction